999
********************************
999
*   DXF File - Entities Only   *
999
*        3D Data Format        *
999
*     Output from ENVISAGE     *
999
*     18-Nov-2006 12:54:51     *
999
********************************
  0
SECTION 
  2
HEADER
  9
$ACADVER
  1
AC1009
  9
$EXTMIN
 10
-290000.000
 20
-250000.000
 30
-4000.000
  9
$EXTMAX
 10
320000.000
 20
160000.000
 30
6000.000
  0
ENDSEC
  0
SECTION
  2
ENTITIES
  0
LINE
  8
1000SCALE
 62
1
 10
-1031.834
 20
-9943.797
 30
1000.000
 11
-35.369
 21
-9943.797
 31
1000.000
  0
POLYLINE
  8
T48SSILL
 62
8
 66
     1
 70
     9
  0
VERTEX
  8
T48SSILL
 62
8
 10
716.997
 20
-6700.893
 30
387.795
 70
    32
  0
VERTEX
  8
T48SSILL
 62
8
 10
714.914
 20
-6736.637
 30
393.839
 70
    32
  0
VERTEX
  8
T48SSILL
 62
8
 10
724.424
 20
-6738.615
 30
393.030
 70
    32
  0
VERTEX
  8
T48SSILL
 62
8
 10
726.069
 20
-6708.445
 30
387.836
 70
    32
  0
SEQEND
  8
T48SSILL
  0
POLYLINE
  8
T48SSILL
 62
8
 66
     1
 70
     9
  0
VERTEX
  8
T48SSILL
 62
8
 10
840.539
 20
-7131.079
 30
388.830
 70
    32
  0
VERTEX
  8
T48SSILL
 62
8
 10
829.219
 20
-7132.613
 30
391.339
 70
    32
  0
VERTEX
  8
T48SSILL
 62
8
 10
819.818
 20
-7130.705
 30
393.198
 70
    32
  0
VERTEX
  8
T48SSILL
 62
8
 10
821.566
 20
-7143.541
 30
392.011
 70
    32
  0
VERTEX
  8
T48SSILL
 62
8
 10
821.566
 20
-7143.541
 30
392.011
 70
    32
  0
VERTEX
  8
T48SSILL
 62
8
 10
840.798
 20
-7143.807
 30
388.814
 70
    32
  0
SEQEND
  8
T48SSILL
  0
POLYLINE
  8
T48SSILL
 62
8
 66
     1
 70
     9
  0
VERTEX
  8
T48SSILL
 62
8
 10
812.462
 20
-7193.035
 30
388.645
 70
    32
  0
VERTEX
  8
T48SSILL
 62
8
 10
804.028
 20
-7168.765
 30
393.746
 70
    32
  0
VERTEX
  8
T48SSILL
 62
8
 10
811.581
 20
-7164.946
 30
392.098
 70
    32
  0
VERTEX
  8
T48SSILL
 62
8
 10
819.215
 20
-7186.915
 30
388.678
 70
    32
  0
SEQEND
  8
T48SSILL
  0
POLYLINE
  8
T48SSILL
 62
8
 66
     1
 70
     9
  0
VERTEX
  8
T48SSILL
 62
8
 10
779.855
 20
-7222.592
 30
388.468
 70
    32
  0
VERTEX
  8
T48SSILL
 62
8
 10
775.421
 20
-7210.849
 30
390.166
 70
    32
  0
VERTEX
  8
T48SSILL
 62
8
 10
774.737
 20
-7205.192
 30
391.775
 70
    32
  0
VERTEX
  8
T48SSILL
 62
8
 10
781.358
 20
-7198.564
 30
392.282
 70
    32
  0
VERTEX
  8
T48SSILL
 62
8
 10
788.202
 20
-7215.025
 30
388.517
 70
    32
  0
SEQEND
  8
T48SSILL
  0
POLYLINE
  8
T48SSILL
 62
8
 66
     1
 70
     9
  0
VERTEX
  8
T48SSILL
 62
8
 10
756.145
 20
-7244.082
 30
388.329
 70
    32
  0
VERTEX
  8
T48SSILL
 62
8
 10
751.904
 20
-7233.789
 30
389.602
 70
    32
  0
VERTEX
  8
T48SSILL
 62
8
 10
750.017
 20
-7221.061
 30
391.223
 70
    32
  0
VERTEX
  8
T48SSILL
 62
8
 10
740.816
 20
-7219.558
 30
391.240
 70
    32
  0
VERTEX
  8
T48SSILL
 62
8
 10
741.945
 20
-7237.673
 30
389.360
 70
    32
  0
VERTEX
  8
T48SSILL
 62
8
 10
748.337
 20
-7251.160
 30
388.283
 70
    32
  0
SEQEND
  8
T48SSILL
  0
POLYLINE
  8
T48SSILL
 62
8
 66
     1
 70
     9
  0
VERTEX
  8
T48SSILL
 62
8
 10
1172.851
 20
-8053.625
 30
395.207
 70
    32
  0
VERTEX
  8
T48SSILL
 62
8
 10
1175.463
 20
-8075.003
 30
393.410
 70
    32
  0
VERTEX
  8
T48SSILL
 62
8
 10
1180.622
 20
-8082.395
 30
387.431
 70
    32
  0
VERTEX
  8
T48SSILL
 62
8
 10
1187.506
 20
-8073.071
 30
393.410
 70
    32
  0
VERTEX
  8
T48SSILL
 62
8
 10
1191.937
 20
-8069.890
 30
393.410
 70
    32
  0
SEQEND
  8
T48SSILL
  0
POLYLINE
  8
T48SSILL
 62
8
 66
     1
 70
     9
  0
VERTEX
  8
T48SSILL
 62
8
 10
1191.937
 20
-8069.890
 30
393.410
 70
    32
  0
VERTEX
  8
T48SSILL
 62
8
 10
1203.720
 20
-8065.326
 30
393.410
 70
    32
  0
VERTEX
  8
T48SSILL
 62
8
 10
1217.809
 20
-8081.000
 30
387.000
 70
    32
  0
VERTEX
  8
T48SSILL
 62
8
 10
1208.176
 20
-8089.443
 30
387.000
 70
    32
  0
SEQEND
  8
T48SSILL
  0
POLYLINE
  8
T48SSILL
 62
8
 66
     1
 70
     9
  0
VERTEX
  8
T48SSILL
 62
8
 10
736.315
 20
-6720.238
 30
387.889
 70
    32
  0
VERTEX
  8
T48SSILL
 62
8
 10
745.662
 20
-6718.166
 30
387.911
 70
    32
  0
VERTEX
  8
T48SSILL
 62
8
 10
749.918
 20
-6722.711
 30
386.148
 70
    32
  0
VERTEX
  8
T48SSILL
 62
8
 10
754.693
 20
-6724.269
 30
385.176
 70
    32
  0
VERTEX
  8
T48SSILL
 62
8
 10
756.993
 20
-6728.812
 30
384.559
 70
    32
  0
VERTEX
  8
T48SSILL
 62
8
 10
754.307
 20
-6732.306
 30
384.935
 70
    32
  0
VERTEX
  8
T48SSILL
 62
8
 10
759.025
 20
-6742.363
 30
383.236
 70
    32
  0
VERTEX
  8
T48SSILL
 62
8
 10
748.688
 20
-6747.346
 30
383.370
 70
    32
  0
SEQEND
  8
T48SSILL
  0
TEXT
  8
T48SSILL
 62
8
 10
4800.355
 20
-9450.304
 30
386.948
 40
0.200
  1
4850
 41
 1.0 
  0
TEXT
  8
T48SSILL
 62
8
 10
704.875
 20
-6731.933
 30
391.477
 40
0.200
  1
U
 50
-93.334
 41
 1.0 
  0
TEXT
  8
T48SSILL
 62
8
 10
830.006
 20
-7121.790
 30
392.011
 40
0.200
  1
U
 41
 1.0 
  0
TEXT
  8
T48SSILL
 62
8
 10
820.623
 20
-7173.412
 30
391.246
 40
0.200
  1
U
 41
 1.0 
  0
TEXT
  8
T48SSILL
 62
8
 10
790.294
 20
-7203.599
 30
390.166
 40
0.200
  1
U
 41
 1.0 
  0
TEXT
  8
T48SSILL
 62
8
 10
758.827
 20
-7234.451
 30
389.360
 40
0.200
  1
U
 41
 1.0 
  0
TEXT
  8
T48SSILL
 62
8
 10
1165.632
 20
-8059.362
 30
393.410
 40
0.200
  1
U
 41
 1.0 
  0
TEXT
  8
T48SSILL
 62
8
 10
1191.919
 20
-8088.840
 30
387.000
 40
0.200
  1
D
 41
 1.0 
  0
TEXT
  8
T48SSILL
 62
8
 10
759.025
 20
-6742.363
 30
383.236
 40
0.200
  1
D
 41
 1.0 
  0
TEXT
  8
T48SSILL
 62
8
 10
-807.124
 20
-7144.294
 30
387.457
 40
0.200
  1
4850
 41
 1.0 
  0
POLYLINE
  8
T48SSILL
 62
8
 66
     1
 70
     9
  0
VERTEX
  8
T48SSILL
 62
8
 10
4521.508
 20
-7847.499
 30
386.836
 70
    32
  0
VERTEX
  8
T48SSILL
 62
8
 10
4517.960
 20
-7833.557
 30
386.834
 70
    32
  0
VERTEX
  8
T48SSILL
 62
8
 10
4505.492
 20
-7832.437
 30
386.838
 70
    32
  0
VERTEX
  8
T48SSILL
 62
8
 10
4518.386
 20
-7850.445
 30
386.837
 70
    32
  0
SEQEND
  8
T48SSILL
  0
POLYLINE
  8
T48SSILL
 62
8
 66
     1
 70
     9
  0
VERTEX
  8
T48SSILL
 62
8
 10
1970.251
 20
-4717.849
 30
387.597
 70
    32
  0
VERTEX
  8
T48SSILL
 62
8
 10
2029.377
 20
-4782.980
 30
386.820
 70
    32
  0
VERTEX
  8
T48SSILL
 62
8
 10
1972.293
 20
-4810.004
 30
386.916
 70
    32
  0
VERTEX
  8
T48SSILL
 62
8
 10
1963.332
 20
-4810.535
 30
386.968
 70
    32
  0
VERTEX
  8
T48SSILL
 62
8
 10
1955.882
 20
-4804.984
 30
387.058
 70
    32
  0
VERTEX
  8
T48SSILL
 62
8
 10
1921.970
 20
-4822.949
 30
387.154
 70
    32
  0
VERTEX
  8
T48SSILL
 62
8
 10
1908.195
 20
-4823.224
 30
387.239
 70
    32
  0
VERTEX
  8
T48SSILL
 62
8
 10
1903.646
 20
-4822.881
 30
387.269
 70
    32
  0
VERTEX
  8
T48SSILL
 62
8
 10
1900.069
 20
-4820.600
 30
387.304
 70
    32
  0
VERTEX
  8
T48SSILL
 62
8
 10
1892.534
 20
-4813.020
 30
387.395
 70
    32
  0
VERTEX
  8
T48SSILL
 62
8
 10
1896.642
 20
-4804.227
 30
387.421
 70
    32
  0
VERTEX
  8
T48SSILL
 62
8
 10
1895.819
 20
-4790.751
 30
387.440
 70
    32
  0
VERTEX
  8
T48SSILL
 62
8
 10
1894.236
 20
-4788.191
 30
387.434
 70
    32
  0
VERTEX
  8
T48SSILL
 62
8
 10
1894.618
 20
-4761.595
 30
387.426
 70
    32
  0
VERTEX
  8
T48SSILL
 62
8
 10
1889.650
 20
-4748.465
 30
387.406
 70
    32
  0
VERTEX
  8
T48SSILL
 62
8
 10
1891.245
 20
-4743.970
 30
387.410
 70
    32
  0
VERTEX
  8
T48SSILL
 62
8
 10
1898.301
 20
-4733.524
 30
387.392
 70
    32
  0
VERTEX
  8
T48SSILL
 62
8
 10
1907.539
 20
-4725.410
 30
387.378
 70
    32
  0
VERTEX
  8
T48SSILL
 62
8
 10
1923.551
 20
-4716.638
 30
387.402
 70
    32
  0
VERTEX
  8
T48SSILL
 62
8
 10
1968.999
 20
-4717.816
 30
387.612
 70
    32
  0
SEQEND
  8
T48SSILL
  0
POLYLINE
  8
T48SSILL
 62
8
 66
     1
 70
     9
  0
VERTEX
  8
T48SSILL
 62
8
 10
1903.183
 20
-4715.455
 30
387.264
 70
    32
  0
VERTEX
  8
T48SSILL
 62
8
 10
1887.193
 20
-4731.477
 30
387.304
 70
    32
  0
VERTEX
  8
T48SSILL
 62
8
 10
1879.779
 20
-4745.273
 30
387.372
 70
    32
  0
VERTEX
  8
T48SSILL
 62
8
 10
1871.134
 20
-4757.127
 30
387.347
 70
    32
  0
VERTEX
  8
T48SSILL
 62
8
 10
1874.219
 20
-4777.609
 30
387.364
 70
    32
  0
VERTEX
  8
T48SSILL
 62
8
 10
1871.841
 20
-4816.264
 30
387.392
 70
    32
  0
VERTEX
  8
T48SSILL
 62
8
 10
1878.361
 20
-4819.098
 30
387.423
 70
    32
  0
VERTEX
  8
T48SSILL
 62
8
 10
1882.181
 20
-4823.178
 30
387.401
 70
    32
  0
VERTEX
  8
T48SSILL
 62
8
 10
1882.439
 20
-4827.059
 30
387.377
 70
    32
  0
VERTEX
  8
T48SSILL
 62
8
 10
1846.268
 20
-4826.237
 30
387.326
 70
    32
  0
VERTEX
  8
T48SSILL
 62
8
 10
1831.903
 20
-4821.009
 30
387.261
 70
    32
  0
VERTEX
  8
T48SSILL
 62
8
 10
1824.810
 20
-4812.989
 30
387.214
 70
    32
  0
VERTEX
  8
T48SSILL
 62
8
 10
1834.955
 20
-4800.344
 30
387.240
 70
    32
  0
VERTEX
  8
T48SSILL
 62
8
 10
1835.032
 20
-4766.711
 30
387.229
 70
    32
  0
VERTEX
  8
T48SSILL
 62
8
 10
1820.742
 20
-4749.208
 30
387.044
 70
    32
  0
VERTEX
  8
T48SSILL
 62
8
 10
1823.709
 20
-4736.973
 30
386.956
 70
    32
  0
VERTEX
  8
T48SSILL
 62
8
 10
1833.951
 20
-4719.742
 30
386.869
 70
    32
  0
VERTEX
  8
T48SSILL
 62
8
 10
1837.713
 20
-4716.821
 30
386.867
 70
    32
  0
VERTEX
  8
T48SSILL
 62
8
 10
1849.606
 20
-4713.438
 30
386.911
 70
    32
  0
SEQEND
  8
T48SSILL
  0
POLYLINE
  8
T48SSILL
 62
8
 66
     1
 70
     9
  0
VERTEX
  8
T48SSILL
 62
8
 10
1874.030
 20
-4704.875
 30
386.989
 70
    32
  0
VERTEX
  8
T48SSILL
 62
8
 10
1871.200
 20
-4679.579
 30
386.750
 70
    32
  0
VERTEX
  8
T48SSILL
 62
8
 10
1872.479
 20
-4654.625
 30
386.540
 70
    32
  0
VERTEX
  8
T48SSILL
 62
8
 10
1849.271
 20
-4653.473
 30
386.468
 70
    32
  0
VERTEX
  8
T48SSILL
 62
8
 10
1849.637
 20
-4645.714
 30
386.464
 70
    32
  0
VERTEX
  8
T48SSILL
 62
8
 10
1872.899
 20
-4646.495
 30
386.479
 70
    32
  0
VERTEX
  8
T48SSILL
 62
8
 10
1874.268
 20
-4620.043
 30
386.455
 70
    32
  0
VERTEX
  8
T48SSILL
 62
8
 10
1878.128
 20
-4611.655
 30
386.457
 70
    32
  0
VERTEX
  8
T48SSILL
 62
8
 10
1887.262
 20
-4602.517
 30
386.455
 70
    32
  0
VERTEX
  8
T48SSILL
 62
8
 10
1852.837
 20
-4601.381
 30
386.485
 70
    32
  0
VERTEX
  8
T48SSILL
 62
8
 10
1835.968
 20
-4596.042
 30
386.509
 70
    32
  0
VERTEX
  8
T48SSILL
 62
8
 10
1800.786
 20
-4594.481
 30
386.611
 70
    32
  0
VERTEX
  8
T48SSILL
 62
8
 10
1783.623
 20
-4595.527
 30
386.657
 70
    32
  0
VERTEX
  8
T48SSILL
 62
8
 10
1766.949
 20
-4599.730
 30
386.693
 70
    32
  0
VERTEX
  8
T48SSILL
 62
8
 10
1747.022
 20
-4608.566
 30
386.727
 70
    32
  0
VERTEX
  8
T48SSILL
 62
8
 10
1732.080
 20
-4620.833
 30
386.739
 70
    32
  0
VERTEX
  8
T48SSILL
 62
8
 10
1721.758
 20
-4632.948
 30
386.738
 70
    32
  0
VERTEX
  8
T48SSILL
 62
8
 10
1714.276
 20
-4645.475
 30
386.728
 70
    32
  0
VERTEX
  8
T48SSILL
 62
8
 10
1688.448
 20
-4699.891
 30
386.666
 70
    32
  0
VERTEX
  8
T48SSILL
 62
8
 10
1696.194
 20
-4698.177
 30
386.649
 70
    32
  0
VERTEX
  8
T48SSILL
 62
8
 10
1799.142
 20
-4702.054
 30
386.496
 70
    32
  0
SEQEND
  8
T48SSILL
  0
POLYLINE
  8
T48SSILL
 62
8
 66
     1
 70
     9
  0
VERTEX
  8
T48SSILL
 62
8
 10
1982.676
 20
-4717.270
 30
387.491
 70
    32
  0
VERTEX
  8
T48SSILL
 62
8
 10
2356.173
 20
-4730.465
 30
385.494
 70
    32
  0
VERTEX
  8
T48SSILL
 62
8
 10
2393.744
 20
-4727.641
 30
385.504
 70
    32
  0
VERTEX
  8
T48SSILL
 62
8
 10
2413.642
 20
-4722.928
 30
385.518
 70
    32
  0
VERTEX
  8
T48SSILL
 62
8
 10
2431.821
 20
-4715.318
 30
385.538
 70
    32
  0
VERTEX
  8
T48SSILL
 62
8
 10
2410.019
 20
-4736.947
 30
385.483
 70
    32
  0
VERTEX
  8
T48SSILL
 62
8
 10
2398.331
 20
-4737.632
 30
385.480
 70
    32
  0
VERTEX
  8
T48SSILL
 62
8
 10
2380.057
 20
-4752.786
 30
385.442
 70
    32
  0
VERTEX
  8
T48SSILL
 62
8
 10
2371.369
 20
-4757.499
 30
385.430
 70
    32
  0
VERTEX
  8
T48SSILL
 62
8
 10
2346.916
 20
-4786.928
 30
385.356
 70
    32
  0
VERTEX
  8
T48SSILL
 62
8
 10
2342.462
 20
-4790.686
 30
385.346
 70
    32
  0
VERTEX
  8
T48SSILL
 62
8
 10
2331.025
 20
-4795.250
 30
385.334
 70
    32
  0
VERTEX
  8
T48SSILL
 62
8
 10
2328.988
 20
-4804.021
 30
385.313
 70
    32
  0
VERTEX
  8
T48SSILL
 62
8
 10
2309.670
 20
-4820.282
 30
385.295
 70
    32
  0
VERTEX
  8
T48SSILL
 62
8
 10
2285.313
 20
-4830.516
 30
385.282
 70
    32
  0
VERTEX
  8
T48SSILL
 62
8
 10
2274.241
 20
-4831.291
 30
385.276
 70
    32
  0
VERTEX
  8
T48SSILL
 62
8
 10
2248.625
 20
-4827.296
 30
385.263
 70
    32
  0
VERTEX
  8
T48SSILL
 62
8
 10
2220.293
 20
-4818.181
 30
385.203
 70
    32
  0
VERTEX
  8
T48SSILL
 62
8
 10
2215.621
 20
-4813.090
 30
385.164
 70
    32
  0
VERTEX
  8
T48SSILL
 62
8
 10
2192.452
 20
-4804.414
 30
385.115
 70
    32
  0
VERTEX
  8
T48SSILL
 62
8
 10
2188.556
 20
-4793.579
 30
384.966
 70
    32
  0
VERTEX
  8
T48SSILL
 62
8
 10
2179.865
 20
-4788.405
 30
385.033
 70
    32
  0
VERTEX
  8
T48SSILL
 62
8
 10
2140.478
 20
-4780.382
 30
385.475
 70
    32
  0
VERTEX
  8
T48SSILL
 62
8
 10
2137.164
 20
-4780.654
 30
385.515
 70
    32
  0
VERTEX
  8
T48SSILL
 62
8
 10
2132.248
 20
-4791.020
 30
385.565
 70
    32
  0
VERTEX
  8
T48SSILL
 62
8
 10
2121.164
 20
-4790.156
 30
385.700
 70
    32
  0
VERTEX
  8
T48SSILL
 62
8
 10
2111.235
 20
-4786.123
 30
385.824
 70
    32
  0
VERTEX
  8
T48SSILL
 62
8
 10
2098.748
 20
-4777.623
 30
385.983
 70
    32
  0
VERTEX
  8
T48SSILL
 62
8
 10
2082.243
 20
-4774.203
 30
386.187
 70
    32
  0
VERTEX
  8
T48SSILL
 62
8
 10
2075.209
 20
-4774.498
 30
386.272
 70
    32
  0
VERTEX
  8
T48SSILL
 62
8
 10
2070.848
 20
-4776.758
 30
386.323
 70
    32
  0
VERTEX
  8
T48SSILL
 62
8
 10
2067.128
 20
-4782.387
 30
386.363
 70
    32
  0
VERTEX
  8
T48SSILL
 62
8
 10
2061.989
 20
-4785.667
 30
386.422
 70
    32
  0
VERTEX
  8
T48SSILL
 62
8
 10
2039.414
 20
-4778.526
 30
386.702
 70
    32
  0
VERTEX
  8
T48SSILL
 62
8
 10
2033.435
 20
-4774.189
 30
386.779
 70
    32
  0
VERTEX
  8
T48SSILL
 62
8
 10
1987.059
 20
-4722.193
 30
387.389
 70
    32
  0
SEQEND
  8
T48SSILL
  0
POLYLINE
  8
T48SSILL
 62
8
 66
     1
 70
     9
  0
VERTEX
  8
T48SSILL
 62
8
 10
894.182
 20
-6696.755
 30
388.370
 70
    32
  0
VERTEX
  8
T48SSILL
 62
8
 10
889.409
 20
-6698.536
 30
388.346
 70
    32
  0
VERTEX
  8
T48SSILL
 62
8
 10
874.118
 20
-6698.425
 30
388.263
 70
    32
  0
VERTEX
  8
T48SSILL
 62
8
 10
844.062
 20
-6693.943
 30
388.138
 70
    32
  0
VERTEX
  8
T48SSILL
 62
8
 10
840.911
 20
-6689.823
 30
388.121
 70
    32
  0
VERTEX
  8
T48SSILL
 62
8
 10
842.582
 20
-6676.873
 30
388.098
 70
    32
  0
VERTEX
  8
T48SSILL
 62
8
 10
849.846
 20
-6667.382
 30
388.075
 70
    32
  0
VERTEX
  8
T48SSILL
 62
8
 10
862.402
 20
-6665.774
 30
388.154
 70
    32
  0
VERTEX
  8
T48SSILL
 62
8
 10
883.232
 20
-6672.297
 30
388.276
 70
    32
  0
VERTEX
  8
T48SSILL
 62
8
 10
887.998
 20
-6675.807
 30
388.307
 70
    32
  0
VERTEX
  8
T48SSILL
 62
8
 10
893.363
 20
-6682.126
 30
388.345
 70
    32
  0
VERTEX
  8
T48SSILL
 62
8
 10
893.566
 20
-6691.044
 30
388.358
 70
    32
  0
SEQEND
  8
T48SSILL
  0
POLYLINE
  8
T48SSILL
 62
8
 66
     1
 70
     9
  0
VERTEX
  8
T48SSILL
 62
8
 10
4319.104
 20
-7600.463
 30
386.412
 70
    32
  0
VERTEX
  8
T48SSILL
 62
8
 10
4325.635
 20
-7596.375
 30
386.413
 70
    32
  0
VERTEX
  8
T48SSILL
 62
8
 10
4338.443
 20
-7614.916
 30
386.442
 70
    32
  0
VERTEX
  8
T48SSILL
 62
8
 10
4339.118
 20
-7625.016
 30
386.454
 70
    32
  0
VERTEX
  8
T48SSILL
 62
8
 10
4335.369
 20
-7635.491
 30
386.462
 70
    32
  0
VERTEX
  8
T48SSILL
 62
8
 10
4331.891
 20
-7639.872
 30
386.465
 70
    32
  0
VERTEX
  8
T48SSILL
 62
8
 10
4170.613
 20
-7756.224
 30
386.470
 70
    32
  0
VERTEX
  8
T48SSILL
 62
8
 10
4156.886
 20
-7723.939
 30
386.424
 70
    32
  0
VERTEX
  8
T48SSILL
 62
8
 10
4156.463
 20
-7715.839
 30
386.415
 70
    32
  0
VERTEX
  8
T48SSILL
 62
8
 10
4148.282
 20
-7702.017
 30
386.394
 70
    32
  0
VERTEX
  8
T48SSILL
 62
8
 10
4145.104
 20
-7686.965
 30
386.375
 70
    32
  0
VERTEX
  8
T48SSILL
 62
8
 10
4145.808
 20
-7683.725
 30
386.372
 70
    32
  0
VERTEX
  8
T48SSILL
 62
8
 10
4140.849
 20
-7669.529
 30
386.391
 70
    32
  0
VERTEX
  8
T48SSILL
 62
8
 10
4277.789
 20
-7571.834
 30
386.350
 70
    32
  0
VERTEX
  8
T48SSILL
 62
8
 10
4287.339
 20
-7559.876
 30
386.344
 70
    32
  0
VERTEX
  8
T48SSILL
 62
8
 10
4290.491
 20
-7547.979
 30
386.334
 70
    32
  0
VERTEX
  8
T48SSILL
 62
8
 10
4320.677
 20
-7590.149
 30
386.402
 70
    32
  0
VERTEX
  8
T48SSILL
 62
8
 10
4314.692
 20
-7594.386
 30
386.402
 70
    32
  0
SEQEND
  8
T48SSILL
  0
POLYLINE
  8
T48SSILL
 62
8
 66
     1
 70
     9
  0
VERTEX
  8
T48SSILL
 62
8
 10
3911.349
 20
-7942.809
 30
386.638
 70
    32
  0
VERTEX
  8
T48SSILL
 62
8
 10
3899.746
 20
-7916.572
 30
386.664
 70
    32
  0
VERTEX
  8
T48SSILL
 62
8
 10
3891.787
 20
-7902.715
 30
386.669
 70
    32
  0
VERTEX
  8
T48SSILL
 62
8
 10
3892.690
 20
-7901.092
 30
386.678
 70
    32
  0
VERTEX
  8
T48SSILL
 62
8
 10
3887.930
 20
-7894.287
 30
386.676
 70
    32
  0
VERTEX
  8
T48SSILL
 62
8
 10
3929.700
 20
-7863.861
 30
386.899
 70
    32
  0
VERTEX
  8
T48SSILL
 62
8
 10
3935.202
 20
-7861.228
 30
386.883
 70
    32
  0
VERTEX
  8
T48SSILL
 62
8
 10
3941.332
 20
-7860.535
 30
386.863
 70
    32
  0
VERTEX
  8
T48SSILL
 62
8
 10
3955.628
 20
-7862.906
 30
386.812
 70
    32
  0
VERTEX
  8
T48SSILL
 62
8
 10
3961.453
 20
-7867.102
 30
386.788
 70
    32
  0
VERTEX
  8
T48SSILL
 62
8
 10
3973.272
 20
-7880.586
 30
386.733
 70
    32
  0
VERTEX
  8
T48SSILL
 62
8
 10
3989.768
 20
-7886.488
 30
386.670
 70
    32
  0
VERTEX
  8
T48SSILL
 62
8
 10
3936.432
 20
-7924.795
 30
386.810
 70
    32
  0
SEQEND
  8
T48SSILL
  0
POLYLINE
  8
T48SSILL
 62
8
 66
     1
 70
     9
  0
VERTEX
  8
T48SSILL
 62
8
 10
3748.603
 20
-8069.008
 30
386.867
 70
    32
  0
VERTEX
  8
T48SSILL
 62
8
 10
3753.339
 20
-8073.777
 30
386.870
 70
    32
  0
VERTEX
  8
T48SSILL
 62
8
 10
3745.298
 20
-8119.444
 30
387.133
 70
    32
  0
VERTEX
  8
T48SSILL
 62
8
 10
3739.756
 20
-8123.863
 30
387.179
 70
    32
  0
VERTEX
  8
T48SSILL
 62
8
 10
3743.533
 20
-8131.392
 30
387.200
 70
    32
  0
VERTEX
  8
T48SSILL
 62
8
 10
3739.930
 20
-8133.656
 30
387.227
 70
    32
  0
VERTEX
  8
T48SSILL
 62
8
 10
3734.455
 20
-8126.039
 30
387.213
 70
    32
  0
VERTEX
  8
T48SSILL
 62
8
 10
3734.369
 20
-8118.037
 30
387.174
 70
    32
  0
VERTEX
  8
T48SSILL
 62
8
 10
3728.638
 20
-8107.335
 30
387.146
 70
    32
  0
VERTEX
  8
T48SSILL
 62
8
 10
3732.804
 20
-8079.929
 30
386.991
 70
    32
  0
SEQEND
  8
T48SSILL
  0
POLYLINE
  8
T48SSILL
 62
8
 66
     1
 70
     9
  0
VERTEX
  8
T48SSILL
 62
8
 10
3420.246
 20
-4648.467
 30
386.039
 70
    32
  0
VERTEX
  8
T48SSILL
 62
8
 10
3433.501
 20
-4651.554
 30
386.039
 70
    32
  0
VERTEX
  8
T48SSILL
 62
8
 10
3460.215
 20
-4664.882
 30
386.038
 70
    32
  0
VERTEX
  8
T48SSILL
 62
8
 10
3473.763
 20
-4674.948
 30
386.038
 70
    32
  0
VERTEX
  8
T48SSILL
 62
8
 10
3476.632
 20
-4675.146
 30
386.037
 70
    32
  0
VERTEX
  8
T48SSILL
 62
8
 10
3480.750
 20
-4670.182
 30
386.043
 70
    32
  0
VERTEX
  8
T48SSILL
 62
8
 10
3474.265
 20
-4647.231
 30
386.067
 70
    32
  0
VERTEX
  8
T48SSILL
 62
8
 10
3469.739
 20
-4647.152
 30
386.055
 70
    32
  0
VERTEX
  8
T48SSILL
 62
8
 10
3467.644
 20
-4636.802
 30
386.068
 70
    32
  0
VERTEX
  8
T48SSILL
 62
8
 10
3471.754
 20
-4636.312
 30
386.080
 70
    32
  0
VERTEX
  8
T48SSILL
 62
8
 10
3471.602
 20
-4608.745
 30
386.130
 70
    32
  0
VERTEX
  8
T48SSILL
 62
8
 10
3461.750
 20
-4622.137
 30
386.079
 70
    32
  0
VERTEX
  8
T48SSILL
 62
8
 10
3450.845
 20
-4632.592
 30
386.040
 70
    32
  0
VERTEX
  8
T48SSILL
 62
8
 10
3436.062
 20
-4642.060
 30
386.040
 70
    32
  0
VERTEX
  8
T48SSILL
 62
8
 10
3423.837
 20
-4647.265
 30
386.039
 70
    32
  0
SEQEND
  8
T48SSILL
  0
POLYLINE
  8
T48SSILL
 62
8
 66
     1
 70
     9
  0
VERTEX
  8
T48SSILL
 62
8
 10
5442.477
 20
-7682.709
 30
386.146
 70
    32
  0
VERTEX
  8
T48SSILL
 62
8
 10
5454.822
 20
-7684.571
 30
386.146
 70
    32
  0
VERTEX
  8
T48SSILL
 62
8
 10
5466.234
 20
-7681.904
 30
386.157
 70
    32
  0
VERTEX
  8
T48SSILL
 62
8
 10
5492.976
 20
-7663.310
 30
386.189
 70
    32
  0
VERTEX
  8
T48SSILL
 62
8
 10
5481.381
 20
-7730.979
 30
386.151
 70
    32
  0
VERTEX
  8
T48SSILL
 62
8
 10
5477.710
 20
-7737.252
 30
386.145
 70
    32
  0
VERTEX
  8
T48SSILL
 62
8
 10
5444.328
 20
-7685.575
 30
386.147
 70
    32
  0
SEQEND
  8
T48SSILL
  0
POLYLINE
  8
T48SSILL
 62
8
 66
     1
 70
     9
  0
VERTEX
  8
T48SSILL
 62
8
 10
5781.805
 20
-8219.475
 30
386.368
 70
    32
  0
VERTEX
  8
T48SSILL
 62
8
 10
6029.688
 20
-8600.745
 30
386.809
 70
    32
  0
VERTEX
  8
T48SSILL
 62
8
 10
6032.785
 20
-8611.455
 30
386.810
 70
    32
  0
VERTEX
  8
T48SSILL
 62
8
 10
6009.134
 20
-8599.895
 30
386.816
 70
    32
  0
VERTEX
  8
T48SSILL
 62
8
 10
5993.253
 20
-8589.013
 30
386.818
 70
    32
  0
VERTEX
  8
T48SSILL
 62
8
 10
5977.351
 20
-8590.056
 30
386.824
 70
    32
  0
VERTEX
  8
T48SSILL
 62
8
 10
5963.668
 20
-8583.538
 30
386.827
 70
    32
  0
VERTEX
  8
T48SSILL
 62
8
 10
5953.038
 20
-8577.244
 30
386.824
 70
    32
  0
VERTEX
  8
T48SSILL
 62
8
 10
5943.906
 20
-8566.037
 30
386.813
 70
    32
  0
VERTEX
  8
T48SSILL
 62
8
 10
5943.532
 20
-8563.509
 30
386.811
 70
    32
  0
VERTEX
  8
T48SSILL
 62
8
 10
5896.994
 20
-8492.425
 30
386.479
 70
    32
  0
VERTEX
  8
T48SSILL
 62
8
 10
5882.569
 20
-8465.072
 30
386.522
 70
    32
  0
VERTEX
  8
T48SSILL
 62
8
 10
5889.728
 20
-8460.275
 30
386.564
 70
    32
  0
VERTEX
  8
T48SSILL
 62
8
 10
5887.496
 20
-8451.107
 30
386.587
 70
    32
  0
VERTEX
  8
T48SSILL
 62
8
 10
5896.923
 20
-8443.113
 30
386.649
 70
    32
  0
VERTEX
  8
T48SSILL
 62
8
 10
5887.273
 20
-8425.187
 30
386.676
 70
    32
  0
VERTEX
  8
T48SSILL
 62
8
 10
5878.688
 20
-8431.626
 30
386.623
 70
    32
  0
VERTEX
  8
T48SSILL
 62
8
 10
5864.320
 20
-8437.927
 30
386.550
 70
    32
  0
VERTEX
  8
T48SSILL
 62
8
 10
5862.858
 20
-8434.765
 30
386.556
 70
    32
  0
VERTEX
  8
T48SSILL
 62
8
 10
5854.590
 20
-8427.246
 30
386.553
 70
    32
  0
VERTEX
  8
T48SSILL
 62
8
 10
5802.889
 20
-8347.865
 30
386.629
 70
    32
  0
VERTEX
  8
T48SSILL
 62
8
 10
5790.128
 20
-8331.473
 30
386.490
 70
    32
  0
VERTEX
  8
T48SSILL
 62
8
 10
5786.793
 20
-8318.891
 30
386.467
 70
    32
  0
VERTEX
  8
T48SSILL
 62
8
 10
5782.711
 20
-8237.546
 30
386.408
 70
    32
  0
SEQEND
  8
T48SSILL
  0
POLYLINE
  8
T48SSILL
 62
8
 66
     1
 70
     9
  0
VERTEX
  8
T48SSILL
 62
8
 10
5790.545
 20
-8348.779
 30
386.526
 70
    32
  0
VERTEX
  8
T48SSILL
 62
8
 10
5865.918
 20
-8464.279
 30
386.497
 70
    32
  0
VERTEX
  8
T48SSILL
 62
8
 10
5856.419
 20
-8470.177
 30
386.499
 70
    32
  0
VERTEX
  8
T48SSILL
 62
8
 10
5860.898
 20
-8476.270
 30
386.491
 70
    32
  0
VERTEX
  8
T48SSILL
 62
8
 10
5870.095
 20
-8469.940
 30
386.490
 70
    32
  0
VERTEX
  8
T48SSILL
 62
8
 10
5939.707
 20
-8577.668
 30
386.825
 70
    32
  0
VERTEX
  8
T48SSILL
 62
8
 10
5848.696
 20
-8582.247
 30
386.614
 70
    32
  0
VERTEX
  8
T48SSILL
 62
8
 10
5841.602
 20
-8580.237
 30
386.601
 70
    32
  0
VERTEX
  8
T48SSILL
 62
8
 10
5830.871
 20
-8572.725
 30
386.580
 70
    32
  0
VERTEX
  8
T48SSILL
 62
8
 10
5808.971
 20
-8539.445
 30
386.531
 70
    32
  0
VERTEX
  8
T48SSILL
 62
8
 10
5813.227
 20
-8536.787
 30
386.528
 70
    32
  0
VERTEX
  8
T48SSILL
 62
8
 10
5807.459
 20
-8526.553
 30
386.541
 70
    32
  0
VERTEX
  8
T48SSILL
 62
8
 10
5802.266
 20
-8529.866
 30
386.545
 70
    32
  0
VERTEX
  8
T48SSILL
 62
8
 10
5799.436
 20
-8525.516
 30
386.551
 70
    32
  0
VERTEX
  8
T48SSILL
 62
8
 10
5821.474
 20
-8511.163
 30
386.534
 70
    32
  0
VERTEX
  8
T48SSILL
 62
8
 10
5803.894
 20
-8483.442
 30
386.523
 70
    32
  0
VERTEX
  8
T48SSILL
 62
8
 10
5816.757
 20
-8475.297
 30
386.521
 70
    32
  0
VERTEX
  8
T48SSILL
 62
8
 10
5810.413
 20
-8465.466
 30
386.532
 70
    32
  0
VERTEX
  8
T48SSILL
 62
8
 10
5772.544
 20
-8489.397
 30
386.539
 70
    32
  0
VERTEX
  8
T48SSILL
 62
8
 10
5751.947
 20
-8457.672
 30
386.527
 70
    32
  0
VERTEX
  8
T48SSILL
 62
8
 10
5747.518
 20
-8445.213
 30
386.520
 70
    32
  0
VERTEX
  8
T48SSILL
 62
8
 10
5747.475
 20
-8441.165
 30
386.516
 70
    32
  0
VERTEX
  8
T48SSILL
 62
8
 10
5752.056
 20
-8419.502
 30
386.498
 70
    32
  0
VERTEX
  8
T48SSILL
 62
8
 10
5784.839
 20
-8435.829
 30
386.570
 70
    32
  0
VERTEX
  8
T48SSILL
 62
8
 10
5790.342
 20
-8425.754
 30
386.574
 70
    32
  0
VERTEX
  8
T48SSILL
 62
8
 10
5776.176
 20
-8418.393
 30
386.506
 70
    32
  0
VERTEX
  8
T48SSILL
 62
8
 10
5790.501
 20
-8391.948
 30
386.598
 70
    32
  0
VERTEX
  8
T48SSILL
 62
8
 10
5772.582
 20
-8382.599
 30
386.467
 70
    32
  0
VERTEX
  8
T48SSILL
 62
8
 10
5789.326
 20
-8351.074
 30
386.503
 70
    32
  0
SEQEND
  8
T48SSILL
  0
POLYLINE
  8
T48SSILL
 62
8
 66
     1
 70
     9
  0
VERTEX
  8
T48SSILL
 62
8
 10
3976.602
 20
-2106.621
 30
386.156
 70
    32
  0
VERTEX
  8
T48SSILL
 62
8
 10
3984.798
 20
-2109.661
 30
386.157
 70
    32
  0
VERTEX
  8
T48SSILL
 62
8
 10
3992.183
 20
-2114.539
 30
386.160
 70
    32
  0
VERTEX
  8
T48SSILL
 62
8
 10
3998.387
 20
-2123.090
 30
386.162
 70
    32
  0
VERTEX
  8
T48SSILL
 62
8
 10
4002.867
 20
-2141.267
 30
386.167
 70
    32
  0
VERTEX
  8
T48SSILL
 62
8
 10
3999.983
 20
-2152.999
 30
386.170
 70
    32
  0
VERTEX
  8
T48SSILL
 62
8
 10
3872.626
 20
-2126.223
 30
386.148
 70
    32
  0
VERTEX
  8
T48SSILL
 62
8
 10
3881.570
 20
-2085.775
 30
386.139
 70
    32
  0
SEQEND
  8
T48SSILL
  0
POLYLINE
  8
T48SSILL
 62
8
 66
     1
 70
     9
  0
VERTEX
  8
T48SSILL
 62
8
 10
828.931
 20
-6566.455
 30
387.816
 70
    32
  0
VERTEX
  8
T48SSILL
 62
8
 10
828.542
 20
-6622.209
 30
387.946
 70
    32
  0
VERTEX
  8
T48SSILL
 62
8
 10
826.258
 20
-6669.405
 30
388.037
 70
    32
  0
VERTEX
  8
T48SSILL
 62
8
 10
824.129
 20
-6680.956
 30
388.055
 70
    32
  0
VERTEX
  8
T48SSILL
 62
8
 10
822.246
 20
-6683.915
 30
388.056
 70
    32
  0
VERTEX
  8
T48SSILL
 62
8
 10
814.227
 20
-6691.893
 30
388.050
 70
    32
  0
VERTEX
  8
T48SSILL
 62
8
 10
789.737
 20
-6688.410
 30
387.974
 70
    32
  0
VERTEX
  8
T48SSILL
 62
8
 10
744.209
 20
-6689.016
 30
387.847
 70
    32
  0
VERTEX
  8
T48SSILL
 62
8
 10
738.507
 20
-6690.704
 30
387.834
 70
    32
  0
VERTEX
  8
T48SSILL
 62
8
 10
737.007
 20
-6687.240
 30
387.823
 70
    32
  0
VERTEX
  8
T48SSILL
 62
8
 10
740.763
 20
-6676.927
 30
387.812
 70
    32
  0
VERTEX
  8
T48SSILL
 62
8
 10
748.537
 20
-6663.333
 30
387.808
 70
    32
  0
VERTEX
  8
T48SSILL
 62
8
 10
765.212
 20
-6671.148
 30
387.869
 70
    32
  0
VERTEX
  8
T48SSILL
 62
8
 10
771.294
 20
-6659.822
 30
387.863
 70
    32
  0
VERTEX
  8
T48SSILL
 62
8
 10
748.210
 20
-6647.850
 30
387.787
 70
    32
  0
VERTEX
  8
T48SSILL
 62
8
 10
748.159
 20
-6632.708
 30
387.768
 70
    32
  0
VERTEX
  8
T48SSILL
 62
8
 10
741.335
 20
-6624.605
 30
387.743
 70
    32
  0
VERTEX
  8
T48SSILL
 62
8
 10
827.494
 20
-6448.571
 30
387.533
 70
    32
  0
VERTEX
  8
T48SSILL
 62
8
 10
830.071
 20
-6449.177
 30
387.609
 70
    32
  0
VERTEX
  8
T48SSILL
 62
8
 10
830.222
 20
-6453.133
 30
387.618
 70
    32
  0
VERTEX
  8
T48SSILL
 62
8
 10
829.174
 20
-6526.420
 30
387.671
 70
    32
  0
SEQEND
  8
T48SSILL
  0
POLYLINE
  8
T48SSILL
 62
8
 66
     1
 70
     9
  0
VERTEX
  8
T48SSILL
 62
8
 10
1882.013
 20
-4622.430
 30
386.456
 70
    32
  0
VERTEX
  8
T48SSILL
 62
8
 10
1888.977
 20
-4610.263
 30
386.451
 70
    32
  0
VERTEX
  8
T48SSILL
 62
8
 10
1900.735
 20
-4603.458
 30
386.449
 70
    32
  0
VERTEX
  8
T48SSILL
 62
8
 10
1978.878
 20
-4606.382
 30
386.782
 70
    32
  0
VERTEX
  8
T48SSILL
 62
8
 10
1959.415
 20
-4621.586
 30
386.794
 70
    32
  0
VERTEX
  8
T48SSILL
 62
8
 10
1954.041
 20
-4618.667
 30
386.735
 70
    32
  0
VERTEX
  8
T48SSILL
 62
8
 10
1942.866
 20
-4624.926
 30
386.720
 70
    32
  0
VERTEX
  8
T48SSILL
 62
8
 10
1936.680
 20
-4642.428
 30
386.834
 70
    32
  0
VERTEX
  8
T48SSILL
 62
8
 10
1937.522
 20
-4654.899
 30
386.949
 70
    32
  0
VERTEX
  8
T48SSILL
 62
8
 10
1935.341
 20
-4671.720
 30
387.082
 70
    32
  0
VERTEX
  8
T48SSILL
 62
8
 10
1938.312
 20
-4676.875
 30
387.146
 70
    32
  0
VERTEX
  8
T48SSILL
 62
8
 10
1937.999
 20
-4684.705
 30
387.212
 70
    32
  0
VERTEX
  8
T48SSILL
 62
8
 10
1941.463
 20
-4690.373
 30
387.284
 70
    32
  0
VERTEX
  8
T48SSILL
 62
8
 10
1948.814
 20
-4692.255
 30
387.346
 70
    32
  0
VERTEX
  8
T48SSILL
 62
8
 10
1954.426
 20
-4690.484
 30
387.366
 70
    32
  0
VERTEX
  8
T48SSILL
 62
8
 10
1957.947
 20
-4694.018
 30
387.419
 70
    32
  0
VERTEX
  8
T48SSILL
 62
8
 10
1960.211
 20
-4700.582
 30
387.490
 70
    32
  0
VERTEX
  8
T48SSILL
 62
8
 10
1957.834
 20
-4707.862
 30
387.539
 70
    32
  0
VERTEX
  8
T48SSILL
 62
8
 10
1905.563
 20
-4705.530
 30
387.192
 70
    32
  0
VERTEX
  8
T48SSILL
 62
8
 10
1892.510
 20
-4696.900
 30
387.035
 70
    32
  0
VERTEX
  8
T48SSILL
 62
8
 10
1885.829
 20
-4694.737
 30
386.974
 70
    32
  0
VERTEX
  8
T48SSILL
 62
8
 10
1882.387
 20
-4678.657
 30
386.812
 70
    32
  0
VERTEX
  8
T48SSILL
 62
8
 10
1887.467
 20
-4676.010
 30
386.821
 70
    32
  0
VERTEX
  8
T48SSILL
 62
8
 10
1902.143
 20
-4675.171
 30
386.905
 70
    32
  0
VERTEX
  8
T48SSILL
 62
8
 10
1906.867
 20
-4666.467
 30
386.858
 70
    32
  0
VERTEX
  8
T48SSILL
 62
8
 10
1906.515
 20
-4625.779
 30
386.500
 70
    32
  0
VERTEX
  8
T48SSILL
 62
8
 10
1887.031
 20
-4622.907
 30
386.457
 70
    32
  0
SEQEND
  8
T48SSILL
  0
POLYLINE
  8
T48SSILL
 62
8
 66
     1
 70
     9
  0
VERTEX
  8
T48SSILL
 62
8
 10
2510.345
 20
-4633.077
 30
385.745
 70
    32
  0
VERTEX
  8
T48SSILL
 62
8
 10
2486.769
 20
-4647.015
 30
385.709
 70
    32
  0
VERTEX
  8
T48SSILL
 62
8
 10
2471.751
 20
-4658.424
 30
385.680
 70
    32
  0
VERTEX
  8
T48SSILL
 62
8
 10
2427.054
 20
-4707.001
 30
385.558
 70
    32
  0
VERTEX
  8
T48SSILL
 62
8
 10
2402.490
 20
-4715.630
 30
385.534
 70
    32
  0
VERTEX
  8
T48SSILL
 62
8
 10
2381.765
 20
-4719.971
 30
385.522
 70
    32
  0
VERTEX
  8
T48SSILL
 62
8
 10
2368.824
 20
-4721.040
 30
385.518
 70
    32
  0
VERTEX
  8
T48SSILL
 62
8
 10
1997.726
 20
-4709.537
 30
387.493
 70
    32
  0
VERTEX
  8
T48SSILL
 62
8
 10
1994.423
 20
-4702.318
 30
387.588
 70
    32
  0
VERTEX
  8
T48SSILL
 62
8
 10
1987.262
 20
-4702.164
 30
387.616
 70
    32
  0
VERTEX
  8
T48SSILL
 62
8
 10
1978.151
 20
-4708.533
 30
387.626
 70
    32
  0
VERTEX
  8
T48SSILL
 62
8
 10
1975.581
 20
-4705.389
 30
387.628
 70
    32
  0
VERTEX
  8
T48SSILL
 62
8
 10
1970.531
 20
-4688.907
 30
387.453
 70
    32
  0
VERTEX
  8
T48SSILL
 62
8
 10
1970.512
 20
-4679.454
 30
387.370
 70
    32
  0
VERTEX
  8
T48SSILL
 62
8
 10
1976.379
 20
-4673.309
 30
387.353
 70
    32
  0
VERTEX
  8
T48SSILL
 62
8
 10
1985.538
 20
-4670.098
 30
387.382
 70
    32
  0
VERTEX
  8
T48SSILL
 62
8
 10
1990.447
 20
-4666.650
 30
387.382
 70
    32
  0
VERTEX
  8
T48SSILL
 62
8
 10
1989.580
 20
-4658.271
 30
387.303
 70
    32
  0
VERTEX
  8
T48SSILL
 62
8
 10
1983.846
 20
-4639.548
 30
387.104
 70
    32
  0
VERTEX
  8
T48SSILL
 62
8
 10
1976.504
 20
-4642.392
 30
387.083
 70
    32
  0
VERTEX
  8
T48SSILL
 62
8
 10
1972.062
 20
-4640.868
 30
387.042
 70
    32
  0
VERTEX
  8
T48SSILL
 62
8
 10
1968.384
 20
-4626.223
 30
386.890
 70
    32
  0
VERTEX
  8
T48SSILL
 62
8
 10
1996.444
 20
-4606.025
 30
386.889
 70
    32
  0
VERTEX
  8
T48SSILL
 62
8
 10
2018.830
 20
-4606.039
 30
387.029
 70
    32
  0
VERTEX
  8
T48SSILL
 62
8
 10
2022.527
 20
-4646.257
 30
387.404
 70
    32
  0
VERTEX
  8
T48SSILL
 62
8
 10
2030.809
 20
-4646.900
 30
387.462
 70
    32
  0
VERTEX
  8
T48SSILL
 62
8
 10
2038.270
 20
-4645.408
 30
387.495
 70
    32
  0
VERTEX
  8
T48SSILL
 62
8
 10
2042.748
 20
-4628.554
 30
387.376
 70
    32
  0
VERTEX
  8
T48SSILL
 62
8
 10
2047.705
 20
-4627.389
 30
387.396
 70
    32
  0
VERTEX
  8
T48SSILL
 62
8
 10
2048.086
 20
-4607.542
 30
387.225
 70
    32
  0
VERTEX
  8
T48SSILL
 62
8
 10
2124.028
 20
-4610.640
 30
387.429
 70
    32
  0
VERTEX
  8
T48SSILL
 62
8
 10
2125.312
 20
-4628.147
 30
387.356
 70
    32
  0
VERTEX
  8
T48SSILL
 62
8
 10
2136.149
 20
-4628.975
 30
387.305
 70
    32
  0
VERTEX
  8
T48SSILL
 62
8
 10
2152.397
 20
-4624.673
 30
387.263
 70
    32
  0
VERTEX
  8
T48SSILL
 62
8
 10
2164.969
 20
-4628.714
 30
387.215
 70
    32
  0
VERTEX
  8
T48SSILL
 62
8
 10
2175.976
 20
-4659.420
 30
386.913
 70
    32
  0
VERTEX
  8
T48SSILL
 62
8
 10
2177.778
 20
-4669.067
 30
386.761
 70
    32
  0
VERTEX
  8
T48SSILL
 62
8
 10
2173.771
 20
-4671.064
 30
386.762
 70
    32
  0
VERTEX
  8
T48SSILL
 62
8
 10
2176.026
 20
-4676.747
 30
386.664
 70
    32
  0
VERTEX
  8
T48SSILL
 62
8
 10
2180.102
 20
-4675.579
 30
386.651
 70
    32
  0
VERTEX
  8
T48SSILL
 62
8
 10
2182.467
 20
-4680.081
 30
386.569
 70
    32
  0
VERTEX
  8
T48SSILL
 62
8
 10
2195.512
 20
-4673.988
 30
386.562
 70
    32
  0
VERTEX
  8
T48SSILL
 62
8
 10
2195.346
 20
-4670.815
 30
386.608
 70
    32
  0
VERTEX
  8
T48SSILL
 62
8
 10
2193.555
 20
-4663.248
 30
386.730
 70
    32
  0
VERTEX
  8
T48SSILL
 62
8
 10
2185.636
 20
-4653.651
 30
386.925
 70
    32
  0
VERTEX
  8
T48SSILL
 62
8
 10
2174.797
 20
-4631.284
 30
387.184
 70
    32
  0
VERTEX
  8
T48SSILL
 62
8
 10
2173.145
 20
-4624.052
 30
387.198
 70
    32
  0
VERTEX
  8
T48SSILL
 62
8
 10
2231.103
 20
-4612.304
 30
387.054
 70
    32
  0
VERTEX
  8
T48SSILL
 62
8
 10
2289.369
 20
-4614.393
 30
386.733
 70
    32
  0
VERTEX
  8
T48SSILL
 62
8
 10
2289.839
 20
-4616.351
 30
386.701
 70
    32
  0
VERTEX
  8
T48SSILL
 62
8
 10
2300.907
 20
-4616.898
 30
386.613
 70
    32
  0
VERTEX
  8
T48SSILL
 62
8
 10
2301.395
 20
-4613.127
 30
386.663
 70
    32
  0
VERTEX
  8
T48SSILL
 62
8
 10
2409.574
 20
-4616.716
 30
385.824
 70
    32
  0
VERTEX
  8
T48SSILL
 62
8
 10
2409.880
 20
-4620.224
 30
385.771
 70
    32
  0
VERTEX
  8
T48SSILL
 62
8
 10
2421.757
 20
-4621.267
 30
385.669
 70
    32
  0
VERTEX
  8
T48SSILL
 62
8
 10
2422.051
 20
-4617.531
 30
385.721
 70
    32
  0
VERTEX
  8
T48SSILL
 62
8
 10
2507.088
 20
-4620.887
 30
385.774
 70
    32
  0
VERTEX
  8
T48SSILL
 62
8
 10
2525.428
 20
-4622.301
 30
385.773
 70
    32
  0
VERTEX
  8
T48SSILL
 62
8
 10
2525.913
 20
-4625.457
 30
385.765
 70
    32
  0
VERTEX
  8
T48SSILL
 62
8
 10
2517.580
 20
-4629.910
 30
385.753
 70
    32
  0
SEQEND
  8
T48SSILL
  0
POLYLINE
  8
T48SSILL
 62
8
 66
     1
 70
     9
  0
VERTEX
  8
T48SSILL
 62
8
 10
3881.865
 20
-2649.319
 30
386.261
 70
    32
  0
VERTEX
  8
T48SSILL
 62
8
 10
3890.129
 20
-2640.547
 30
386.263
 70
    32
  0
VERTEX
  8
T48SSILL
 62
8
 10
3888.676
 20
-2646.765
 30
386.263
 70
    32
  0
VERTEX
  8
T48SSILL
 62
8
 10
3887.301
 20
-2646.709
 30
386.263
 70
    32
  0
VERTEX
  8
T48SSILL
 62
8
 10
3885.392
 20
-2658.271
 30
386.263
 70
    32
  0
VERTEX
  8
T48SSILL
 62
8
 10
3887.196
 20
-2658.887
 30
386.264
 70
    32
  0
VERTEX
  8
T48SSILL
 62
8
 10
3867.690
 20
-2747.303
 30
386.265
 70
    32
  0
VERTEX
  8
T48SSILL
 62
8
 10
3866.031
 20
-2747.021
 30
386.265
 70
    32
  0
VERTEX
  8
T48SSILL
 62
8
 10
3863.073
 20
-2759.386
 30
386.265
 70
    32
  0
VERTEX
  8
T48SSILL
 62
8
 10
3867.256
 20
-2760.066
 30
386.267
 70
    32
  0
VERTEX
  8
T48SSILL
 62
8
 10
3849.047
 20
-2845.989
 30
386.277
 70
    32
  0
VERTEX
  8
T48SSILL
 62
8
 10
3845.073
 20
-2848.104
 30
386.277
 70
    32
  0
VERTEX
  8
T48SSILL
 62
8
 10
3834.571
 20
-2858.724
 30
386.279
 70
    32
  0
VERTEX
  8
T48SSILL
 62
8
 10
3825.544
 20
-2861.279
 30
386.277
 70
    32
  0
VERTEX
  8
T48SSILL
 62
8
 10
3816.663
 20
-2861.070
 30
386.274
 70
    32
  0
VERTEX
  8
T48SSILL
 62
8
 10
3810.667
 20
-2865.453
 30
386.275
 70
    32
  0
VERTEX
  8
T48SSILL
 62
8
 10
3811.197
 20
-2868.001
 30
386.276
 70
    32
  0
VERTEX
  8
T48SSILL
 62
8
 10
3803.042
 20
-2871.105
 30
386.276
 70
    32
  0
VERTEX
  8
T48SSILL
 62
8
 10
3801.578
 20
-2874.124
 30
386.277
 70
    32
  0
VERTEX
  8
T48SSILL
 62
8
 10
3802.092
 20
-2878.833
 30
386.280
 70
    32
  0
VERTEX
  8
T48SSILL
 62
8
 10
3807.635
 20
-2889.048
 30
386.287
 70
    32
  0
VERTEX
  8
T48SSILL
 62
8
 10
3810.318
 20
-2892.063
 30
386.290
 70
    32
  0
VERTEX
  8
T48SSILL
 62
8
 10
3813.561
 20
-2892.494
 30
386.291
 70
    32
  0
VERTEX
  8
T48SSILL
 62
8
 10
3824.122
 20
-2885.764
 30
386.291
 70
    32
  0
VERTEX
  8
T48SSILL
 62
8
 10
3845.290
 20
-2862.937
 30
386.285
 70
    32
  0
VERTEX
  8
T48SSILL
 62
8
 10
3826.576
 20
-2948.592
 30
386.327
 70
    32
  0
VERTEX
  8
T48SSILL
 62
8
 10
3822.989
 20
-2948.086
 30
386.325
 70
    32
  0
VERTEX
  8
T48SSILL
 62
8
 10
3820.503
 20
-2959.990
 30
386.331
 70
    32
  0
VERTEX
  8
T48SSILL
 62
8
 10
3824.218
 20
-2961.154
 30
386.333
 70
    32
  0
VERTEX
  8
T48SSILL
 62
8
 10
3819.871
 20
-2982.893
 30
386.344
 70
    32
  0
VERTEX
  8
T48SSILL
 62
8
 10
3805.766
 20
-3048.104
 30
386.375
 70
    32
  0
VERTEX
  8
T48SSILL
 62
8
 10
3802.169
 20
-3047.686
 30
386.371
 70
    32
  0
VERTEX
  8
T48SSILL
 62
8
 10
3799.507
 20
-3059.161
 30
386.360
 70
    32
  0
VERTEX
  8
T48SSILL
 62
8
 10
3803.299
 20
-3060.341
 30
386.373
 70
    32
  0
VERTEX
  8
T48SSILL
 62
8
 10
3785.301
 20
-3141.888
 30
386.384
 70
    32
  0
VERTEX
  8
T48SSILL
 62
8
 10
3781.894
 20
-3141.421
 30
386.373
 70
    32
  0
VERTEX
  8
T48SSILL
 62
8
 10
3779.209
 20
-3152.172
 30
386.373
 70
    32
  0
VERTEX
  8
T48SSILL
 62
8
 10
3783.210
 20
-3153.217
 30
386.387
 70
    32
  0
VERTEX
  8
T48SSILL
 62
8
 10
3764.608
 20
-3239.220
 30
386.426
 70
    32
  0
VERTEX
  8
T48SSILL
 62
8
 10
3760.465
 20
-3238.413
 30
386.417
 70
    32
  0
VERTEX
  8
T48SSILL
 62
8
 10
3757.789
 20
-3250.785
 30
386.446
 70
    32
  0
VERTEX
  8
T48SSILL
 62
8
 10
3761.895
 20
-3251.763
 30
386.456
 70
    32
  0
VERTEX
  8
T48SSILL
 62
8
 10
3742.510
 20
-3339.305
 30
386.660
 70
    32
  0
VERTEX
  8
T48SSILL
 62
8
 10
3738.988
 20
-3338.543
 30
386.653
 70
    32
  0
VERTEX
  8
T48SSILL
 62
8
 10
3736.114
 20
-3351.412
 30
386.683
 70
    32
  0
VERTEX
  8
T48SSILL
 62
8
 10
3740.011
 20
-3352.525
 30
386.692
 70
    32
  0
VERTEX
  8
T48SSILL
 62
8
 10
3721.894
 20
-3435.035
 30
386.844
 70
    32
  0
VERTEX
  8
T48SSILL
 62
8
 10
3718.432
 20
-3434.826
 30
386.836
 70
    32
  0
VERTEX
  8
T48SSILL
 62
8
 10
3715.742
 20
-3448.094
 30
386.827
 70
    32
  0
VERTEX
  8
T48SSILL
 62
8
 10
3718.939
 20
-3448.696
 30
386.834
 70
    32
  0
VERTEX
  8
T48SSILL
 62
8
 10
3701.156
 20
-3531.685
 30
386.779
 70
    32
  0
VERTEX
  8
T48SSILL
 62
8
 10
3697.696
 20
-3531.036
 30
386.771
 70
    32
  0
VERTEX
  8
T48SSILL
 62
8
 10
3695.308
 20
-3543.479
 30
386.763
 70
    32
  0
VERTEX
  8
T48SSILL
 62
8
 10
3698.694
 20
-3544.472
 30
386.771
 70
    32
  0
VERTEX
  8
T48SSILL
 62
8
 10
3680.327
 20
-3629.601
 30
386.713
 70
    32
  0
VERTEX
  8
T48SSILL
 62
8
 10
3676.837
 20
-3628.676
 30
386.706
 70
    32
  0
VERTEX
  8
T48SSILL
 62
8
 10
3674.724
 20
-3639.828
 30
386.699
 70
    32
  0
VERTEX
  8
T48SSILL
 62
8
 10
3677.975
 20
-3640.613
 30
386.706
 70
    32
  0
VERTEX
  8
T48SSILL
 62
8
 10
3660.479
 20
-3722.509
 30
386.651
 70
    32
  0
VERTEX
  8
T48SSILL
 62
8
 10
3656.865
 20
-3721.737
 30
386.643
 70
    32
  0
VERTEX
  8
T48SSILL
 62
8
 10
3654.660
 20
-3732.061
 30
386.636
 70
    32
  0
VERTEX
  8
T48SSILL
 62
8
 10
3657.960
 20
-3733.035
 30
386.643
 70
    32
  0
VERTEX
  8
T48SSILL
 62
8
 10
3639.979
 20
-3816.358
 30
386.587
 70
    32
  0
VERTEX
  8
T48SSILL
 62
8
 10
3636.538
 20
-3815.623
 30
386.580
 70
    32
  0
VERTEX
  8
T48SSILL
 62
8
 10
3634.462
 20
-3825.344
 30
386.573
 70
    32
  0
VERTEX
  8
T48SSILL
 62
8
 10
3637.639
 20
-3826.472
 30
386.580
 70
    32
  0
VERTEX
  8
T48SSILL
 62
8
 10
3617.207
 20
-3920.425
 30
386.729
 70
    32
  0
VERTEX
  8
T48SSILL
 62
8
 10
3614.128
 20
-3919.678
 30
386.727
 70
    32
  0
VERTEX
  8
T48SSILL
 62
8
 10
3611.831
 20
-3930.431
 30
386.747
 70
    32
  0
VERTEX
  8
T48SSILL
 62
8
 10
3615.076
 20
-3931.664
 30
386.750
 70
    32
  0
VERTEX
  8
T48SSILL
 62
8
 10
3595.968
 20
-4020.682
 30
386.912
 70
    32
  0
VERTEX
  8
T48SSILL
 62
8
 10
3592.749
 20
-4020.174
 30
386.911
 70
    32
  0
VERTEX
  8
T48SSILL
 62
8
 10
3589.715
 20
-4033.109
 30
386.934
 70
    32
  0
VERTEX
  8
T48SSILL
 62
8
 10
3593.034
 20
-4033.998
 30
386.937
 70
    32
  0
VERTEX
  8
T48SSILL
 62
8
 10
3575.365
 20
-4115.858
 30
386.747
 70
    32
  0
VERTEX
  8
T48SSILL
 62
8
 10
3572.938
 20
-4115.429
 30
386.744
 70
    32
  0
VERTEX
  8
T48SSILL
 62
8
 10
3569.506
 20
-4128.549
 30
386.713
 70
    32
  0
VERTEX
  8
T48SSILL
 62
8
 10
3571.945
 20
-4129.340
 30
386.715
 70
    32
  0
VERTEX
  8
T48SSILL
 62
8
 10
3572.086
 20
-4133.956
 30
386.706
 70
    32
  0
VERTEX
  8
T48SSILL
 62
8
 10
3554.550
 20
-4216.042
 30
386.566
 70
    32
  0
VERTEX
  8
T48SSILL
 62
8
 10
3550.768
 20
-4215.638
 30
386.564
 70
    32
  0
VERTEX
  8
T48SSILL
 62
8
 10
3548.383
 20
-4225.222
 30
386.555
 70
    32
  0
VERTEX
  8
T48SSILL
 62
8
 10
3551.551
 20
-4226.727
 30
386.556
 70
    32
  0
VERTEX
  8
T48SSILL
 62
8
 10
3533.869
 20
-4311.752
 30
386.478
 70
    32
  0
VERTEX
  8
T48SSILL
 62
8
 10
3530.353
 20
-4311.264
 30
386.476
 70
    32
  0
VERTEX
  8
T48SSILL
 62
8
 10
3527.478
 20
-4323.167
 30
386.465
 70
    32
  0
VERTEX
  8
T48SSILL
 62
8
 10
3531.214
 20
-4324.257
 30
386.466
 70
    32
  0
VERTEX
  8
T48SSILL
 62
8
 10
3511.152
 20
-4417.228
 30
386.396
 70
    32
  0
VERTEX
  8
T48SSILL
 62
8
 10
3507.046
 20
-4416.080
 30
386.382
 70
    32
  0
VERTEX
  8
T48SSILL
 62
8
 10
3505.102
 20
-4426.868
 30
386.387
 70
    32
  0
VERTEX
  8
T48SSILL
 62
8
 10
3509.008
 20
-4428.489
 30
386.401
 70
    32
  0
VERTEX
  8
T48SSILL
 62
8
 10
3488.617
 20
-4517.123
 30
386.342
 70
    32
  0
VERTEX
  8
T48SSILL
 62
8
 10
3484.816
 20
-4516.842
 30
386.346
 70
    32
  0
VERTEX
  8
T48SSILL
 62
8
 10
3482.982
 20
-4527.333
 30
386.317
 70
    32
  0
VERTEX
  8
T48SSILL
 62
8
 10
3486.571
 20
-4528.967
 30
386.314
 70
    32
  0
VERTEX
  8
T48SSILL
 62
8
 10
3474.577
 20
-4586.963
 30
386.177
 70
    32
  0
VERTEX
  8
T48SSILL
 62
8
 10
3464.739
 20
-4608.299
 30
386.112
 70
    32
  0
VERTEX
  8
T48SSILL
 62
8
 10
3454.181
 20
-4621.770
 30
386.059
 70
    32
  0
VERTEX
  8
T48SSILL
 62
8
 10
3436.464
 20
-4599.705
 30
386.140
 70
    32
  0
VERTEX
  8
T48SSILL
 62
8
 10
3424.891
 20
-4608.794
 30
386.122
 70
    32
  0
VERTEX
  8
T48SSILL
 62
8
 10
3442.447
 20
-4631.086
 30
386.040
 70
    32
  0
VERTEX
  8
T48SSILL
 62
8
 10
3431.137
 20
-4637.695
 30
386.040
 70
    32
  0
VERTEX
  8
T48SSILL
 62
8
 10
3418.549
 20
-4642.402
 30
386.040
 70
    32
  0
VERTEX
  8
T48SSILL
 62
8
 10
3402.145
 20
-4644.116
 30
386.040
 70
    32
  0
VERTEX
  8
T48SSILL
 62
8
 10
2568.531
 20
-4614.795
 30
385.795
 70
    32
  0
VERTEX
  8
T48SSILL
 62
8
 10
2559.423
 20
-4612.900
 30
385.799
 70
    32
  0
VERTEX
  8
T48SSILL
 62
8
 10
2558.001
 20
-4610.992
 30
385.803
 70
    32
  0
VERTEX
  8
T48SSILL
 62
8
 10
2707.860
 20
-4373.750
 30
386.087
 70
    32
  0
VERTEX
  8
T48SSILL
 62
8
 10
2714.706
 20
-4371.285
 30
386.086
 70
    32
  0
VERTEX
  8
T48SSILL
 62
8
 10
2718.106
 20
-4366.112
 30
386.088
 70
    32
  0
VERTEX
  8
T48SSILL
 62
8
 10
2723.317
 20
-4356.292
 30
386.092
 70
    32
  0
VERTEX
  8
T48SSILL
 62
8
 10
2723.885
 20
-4348.943
 30
386.095
 70
    32
  0
VERTEX
  8
T48SSILL
 62
8
 10
2758.931
 20
-4293.909
 30
386.165
 70
    32
  0
VERTEX
  8
T48SSILL
 62
8
 10
2835.075
 20
-4183.237
 30
386.382
 70
    32
  0
VERTEX
  8
T48SSILL
 62
8
 10
2840.056
 20
-4180.944
 30
386.385
 70
    32
  0
VERTEX
  8
T48SSILL
 62
8
 10
2850.770
 20
-4165.879
 30
386.405
 70
    32
  0
VERTEX
  8
T48SSILL
 62
8
 10
2851.262
 20
-4156.796
 30
386.416
 70
    32
  0
VERTEX
  8
T48SSILL
 62
8
 10
2960.935
 20
-3989.214
 30
386.074
 70
    32
  0
VERTEX
  8
T48SSILL
 62
8
 10
2966.049
 20
-3988.534
 30
386.072
 70
    32
  0
VERTEX
  8
T48SSILL
 62
8
 10
2976.330
 20
-3970.190
 30
386.103
 70
    32
  0
VERTEX
  8
T48SSILL
 62
8
 10
2975.771
 20
-3965.854
 30
386.113
 70
    32
  0
VERTEX
  8
T48SSILL
 62
8
 10
3071.753
 20
-3819.780
 30
386.523
 70
    32
  0
VERTEX
  8
T48SSILL
 62
8
 10
3080.581
 20
-3817.881
 30
386.536
 70
    32
  0
VERTEX
  8
T48SSILL
 62
8
 10
3092.940
 20
-3798.813
 30
386.473
 70
    32
  0
VERTEX
  8
T48SSILL
 62
8
 10
3115.200
 20
-3751.578
 30
386.321
 70
    32
  0
VERTEX
  8
T48SSILL
 62
8
 10
3205.127
 20
-3612.906
 30
386.124
 70
    32
  0
VERTEX
  8
T48SSILL
 62
8
 10
3212.270
 20
-3609.916
 30
386.125
 70
    32
  0
VERTEX
  8
T48SSILL
 62
8
 10
3217.485
 20
-3604.279
 30
386.123
 70
    32
  0
VERTEX
  8
T48SSILL
 62
8
 10
3223.148
 20
-3586.218
 30
386.109
 70
    32
  0
VERTEX
  8
T48SSILL
 62
8
 10
3318.524
 20
-3438.565
 30
386.043
 70
    32
  0
VERTEX
  8
T48SSILL
 62
8
 10
3323.525
 20
-3435.631
 30
386.044
 70
    32
  0
VERTEX
  8
T48SSILL
 62
8
 10
3335.787
 20
-3419.766
 30
386.038
 70
    32
  0
VERTEX
  8
T48SSILL
 62
8
 10
3337.084
 20
-3410.478
 30
386.031
 70
    32
  0
VERTEX
  8
T48SSILL
 62
8
 10
3435.667
 20
-3261.316
 30
385.904
 70
    32
  0
VERTEX
  8
T48SSILL
 62
8
 10
3446.379
 20
-3256.150
 30
385.922
 70
    32
  0
VERTEX
  8
T48SSILL
 62
8
 10
3452.364
 20
-3246.203
 30
385.920
 70
    32
  0
VERTEX
  8
T48SSILL
 62
8
 10
3455.249
 20
-3232.272
 30
385.906
 70
    32
  0
VERTEX
  8
T48SSILL
 62
8
 10
3570.137
 20
-3059.697
 30
385.649
 70
    32
  0
VERTEX
  8
T48SSILL
 62
8
 10
3583.095
 20
-3048.635
 30
385.692
 70
    32
  0
VERTEX
  8
T48SSILL
 62
8
 10
3590.306
 20
-3037.154
 30
385.741
 70
    32
  0
VERTEX
  8
T48SSILL
 62
8
 10
3598.377
 20
-3019.122
 30
385.807
 70
    32
  0
VERTEX
  8
T48SSILL
 62
8
 10
3697.089
 20
-2870.571
 30
386.162
 70
    32
  0
VERTEX
  8
T48SSILL
 62
8
 10
3714.225
 20
-2852.140
 30
386.170
 70
    32
  0
VERTEX
  8
T48SSILL
 62
8
 10
3718.819
 20
-2843.243
 30
386.179
 70
    32
  0
VERTEX
  8
T48SSILL
 62
8
 10
3727.517
 20
-2835.312
 30
386.198
 70
    32
  0
VERTEX
  8
T48SSILL
 62
8
 10
3760.545
 20
-2790.820
 30
386.227
 70
    32
  0
VERTEX
  8
T48SSILL
 62
8
 10
3834.768
 20
-2697.654
 30
386.247
 70
    32
  0
SEQEND
  8
T48SSILL
  0
POLYLINE
  8
T48SSILL
 62
8
 66
     1
 70
     9
  0
VERTEX
  8
T48SSILL
 62
8
 10
3954.271
 20
-2498.404
 30
386.249
 70
    32
  0
VERTEX
  8
T48SSILL
 62
8
 10
3974.858
 20
-2524.698
 30
386.258
 70
    32
  0
VERTEX
  8
T48SSILL
 62
8
 10
3974.456
 20
-2526.782
 30
386.258
 70
    32
  0
VERTEX
  8
T48SSILL
 62
8
 10
3958.019
 20
-2539.373
 30
386.260
 70
    32
  0
VERTEX
  8
T48SSILL
 62
8
 10
3964.640
 20
-2554.390
 30
386.264
 70
    32
  0
VERTEX
  8
T48SSILL
 62
8
 10
3915.926
 20
-2591.929
 30
386.268
 70
    32
  0
VERTEX
  8
T48SSILL
 62
8
 10
3912.118
 20
-2591.739
 30
386.267
 70
    32
  0
VERTEX
  8
T48SSILL
 62
8
 10
3936.163
 20
-2480.618
 30
386.243
 70
    32
  0
VERTEX
  8
T48SSILL
 62
8
 10
3939.363
 20
-2480.166
 30
386.243
 70
    32
  0
SEQEND
  8
T48SSILL
  0
POLYLINE
  8
T48SSILL
 62
8
 66
     1
 70
     9
  0
VERTEX
  8
T48SSILL
 62
8
 10
3746.264
 20
-8184.464
 30
387.452
 70
    32
  0
VERTEX
  8
T48SSILL
 62
8
 10
3797.674
 20
-8255.072
 30
387.680
 70
    32
  0
VERTEX
  8
T48SSILL
 62
8
 10
3792.779
 20
-8259.027
 30
387.698
 70
    32
  0
VERTEX
  8
T48SSILL
 62
8
 10
3790.529
 20
-8266.965
 30
387.741
 70
    32
  0
VERTEX
  8
T48SSILL
 62
8
 10
3788.152
 20
-8266.385
 30
387.736
 70
    32
  0
VERTEX
  8
T48SSILL
 62
8
 10
3751.319
 20
-8219.845
 30
387.606
 70
    32
  0
VERTEX
  8
T48SSILL
 62
8
 10
3731.968
 20
-8192.016
 30
387.553
 70
    32
  0
VERTEX
  8
T48SSILL
 62
8
 10
3731.691
 20
-8185.567
 30
387.522
 70
    32
  0
SEQEND
  8
T48SSILL
  0
POLYLINE
  8
T48SSILL
 62
8
 66
     1
 70
     9
  0
VERTEX
  8
T48SSILL
 62
8
 10
3827.065
 20
-8012.341
 30
386.312
 70
    32
  0
VERTEX
  8
T48SSILL
 62
8
 10
3793.795
 20
-8035.759
 30
386.503
 70
    32
  0
VERTEX
  8
T48SSILL
 62
8
 10
3793.165
 20
-8041.552
 30
386.535
 70
    32
  0
VERTEX
  8
T48SSILL
 62
8
 10
3776.922
 20
-8055.190
 30
386.674
 70
    32
  0
VERTEX
  8
T48SSILL
 62
8
 10
3779.426
 20
-8060.038
 30
386.687
 70
    32
  0
VERTEX
  8
T48SSILL
 62
8
 10
3787.730
 20
-8064.313
 30
386.672
 70
    32
  0
VERTEX
  8
T48SSILL
 62
8
 10
3787.564
 20
-8067.266
 30
386.687
 70
    32
  0
VERTEX
  8
T48SSILL
 62
8
 10
3773.094
 20
-8078.974
 30
386.809
 70
    32
  0
VERTEX
  8
T48SSILL
 62
8
 10
3768.082
 20
-8074.731
 30
386.810
 70
    32
  0
VERTEX
  8
T48SSILL
 62
8
 10
3760.513
 20
-8075.268
 30
386.846
 70
    32
  0
VERTEX
  8
T48SSILL
 62
8
 10
3754.481
 20
-8108.265
 30
387.037
 70
    32
  0
VERTEX
  8
T48SSILL
 62
8
 10
3759.053
 20
-8109.774
 30
387.024
 70
    32
  0
VERTEX
  8
T48SSILL
 62
8
 10
3764.404
 20
-8117.370
 30
387.038
 70
    32
  0
VERTEX
  8
T48SSILL
 62
8
 10
3749.623
 20
-8134.861
 30
387.190
 70
    32
  0
VERTEX
  8
T48SSILL
 62
8
 10
3747.338
 20
-8148.056
 30
387.266
 70
    32
  0
VERTEX
  8
T48SSILL
 62
8
 10
3741.792
 20
-8147.465
 30
387.288
 70
    32
  0
VERTEX
  8
T48SSILL
 62
8
 10
3745.136
 20
-8154.543
 30
387.308
 70
    32
  0
VERTEX
  8
T48SSILL
 62
8
 10
3740.852
 20
-8163.289
 30
387.371
 70
    32
  0
VERTEX
  8
T48SSILL
 62
8
 10
3752.826
 20
-8180.401
 30
387.403
 70
    32
  0
VERTEX
  8
T48SSILL
 62
8
 10
3762.789
 20
-8189.259
 30
387.403
 70
    32
  0
VERTEX
  8
T48SSILL
 62
8
 10
3775.858
 20
-8194.250
 30
387.371
 70
    32
  0
VERTEX
  8
T48SSILL
 62
8
 10
3792.630
 20
-8195.599
 30
387.337
 70
    32
  0
VERTEX
  8
T48SSILL
 62
8
 10
3803.927
 20
-8192.818
 30
387.331
 70
    32
  0
VERTEX
  8
T48SSILL
 62
8
 10
3814.875
 20
-8187.128
 30
387.308
 70
    32
  0
VERTEX
  8
T48SSILL
 62
8
 10
3821.486
 20
-8182.376
 30
387.287
 70
    32
  0
VERTEX
  8
T48SSILL
 62
8
 10
3823.917
 20
-8176.814
 30
387.258
 70
    32
  0
VERTEX
  8
T48SSILL
 62
8
 10
3823.596
 20
-8172.577
 30
387.233
 70
    32
  0
VERTEX
  8
T48SSILL
 62
8
 10
3827.296
 20
-8168.173
 30
387.211
 70
    32
  0
VERTEX
  8
T48SSILL
 62
8
 10
3834.544
 20
-8163.399
 30
387.191
 70
    32
  0
VERTEX
  8
T48SSILL
 62
8
 10
3841.254
 20
-8167.730
 30
387.221
 70
    32
  0
VERTEX
  8
T48SSILL
 62
8
 10
3907.729
 20
-8120.273
 30
387.011
 70
    32
  0
VERTEX
  8
T48SSILL
 62
8
 10
3906.933
 20
-8112.344
 30
386.965
 70
    32
  0
VERTEX
  8
T48SSILL
 62
8
 10
3918.068
 20
-8103.577
 30
386.925
 70
    32
  0
VERTEX
  8
T48SSILL
 62
8
 10
3927.971
 20
-8105.831
 30
386.946
 70
    32
  0
VERTEX
  8
T48SSILL
 62
8
 10
3965.940
 20
-8078.755
 30
386.845
 70
    32
  0
VERTEX
  8
T48SSILL
 62
8
 10
3971.206
 20
-8071.374
 30
386.818
 70
    32
  0
VERTEX
  8
T48SSILL
 62
8
 10
3973.889
 20
-8063.887
 30
386.787
 70
    32
  0
VERTEX
  8
T48SSILL
 62
8
 10
3974.153
 20
-8056.069
 30
386.751
 70
    32
  0
VERTEX
  8
T48SSILL
 62
8
 10
3969.331
 20
-8043.297
 30
386.685
 70
    32
  0
VERTEX
  8
T48SSILL
 62
8
 10
3947.046
 20
-8015.782
 30
386.582
 70
    32
  0
VERTEX
  8
T48SSILL
 62
8
 10
3917.698
 20
-7974.761
 30
386.570
 70
    32
  0
VERTEX
  8
T48SSILL
 62
8
 10
3913.663
 20
-7961.681
 30
386.591
 70
    32
  0
VERTEX
  8
T48SSILL
 62
8
 10
3915.410
 20
-7949.245
 30
386.637
 70
    32
  0
VERTEX
  8
T48SSILL
 62
8
 10
3852.586
 20
-7994.114
 30
386.205
 70
    32
  0
SEQEND
  8
T48SSILL
  0
POLYLINE
  8
T48SSILL
 62
8
 66
     1
 70
     9
  0
VERTEX
  8
T48SSILL
 62
8
 10
3971.081
 20
-8211.285
 30
387.389
 70
    32
  0
VERTEX
  8
T48SSILL
 62
8
 10
3954.706
 20
-8414.097
 30
387.680
 70
    32
  0
VERTEX
  8
T48SSILL
 62
8
 10
3935.273
 20
-8392.975
 30
387.694
 70
    32
  0
VERTEX
  8
T48SSILL
 62
8
 10
3937.251
 20
-8387.085
 30
387.696
 70
    32
  0
VERTEX
  8
T48SSILL
 62
8
 10
3933.213
 20
-8378.436
 30
387.701
 70
    32
  0
VERTEX
  8
T48SSILL
 62
8
 10
3927.487
 20
-8372.744
 30
387.705
 70
    32
  0
VERTEX
  8
T48SSILL
 62
8
 10
3916.430
 20
-8373.281
 30
387.708
 70
    32
  0
VERTEX
  8
T48SSILL
 62
8
 10
3860.339
 20
-8312.685
 30
387.749
 70
    32
  0
VERTEX
  8
T48SSILL
 62
8
 10
3861.614
 20
-8295.204
 30
387.749
 70
    32
  0
VERTEX
  8
T48SSILL
 62
8
 10
3856.231
 20
-8283.926
 30
387.725
 70
    32
  0
VERTEX
  8
T48SSILL
 62
8
 10
3846.316
 20
-8274.378
 30
387.706
 70
    32
  0
VERTEX
  8
T48SSILL
 62
8
 10
3827.279
 20
-8261.690
 30
387.688
 70
    32
  0
VERTEX
  8
T48SSILL
 62
8
 10
3816.394
 20
-8251.097
 30
387.667
 70
    32
  0
VERTEX
  8
T48SSILL
 62
8
 10
3810.886
 20
-8242.524
 30
387.620
 70
    32
  0
VERTEX
  8
T48SSILL
 62
8
 10
3803.866
 20
-8241.249
 30
387.607
 70
    32
  0
VERTEX
  8
T48SSILL
 62
8
 10
3801.380
 20
-8239.003
 30
387.592
 70
    32
  0
VERTEX
  8
T48SSILL
 62
8
 10
3792.074
 20
-8223.025
 30
387.492
 70
    32
  0
VERTEX
  8
T48SSILL
 62
8
 10
3783.974
 20
-8214.789
 30
387.438
 70
    32
  0
VERTEX
  8
T48SSILL
 62
8
 10
3777.179
 20
-8202.455
 30
387.406
 70
    32
  0
VERTEX
  8
T48SSILL
 62
8
 10
3799.809
 20
-8202.099
 30
387.380
 70
    32
  0
VERTEX
  8
T48SSILL
 62
8
 10
3807.374
 20
-8200.040
 30
387.375
 70
    32
  0
VERTEX
  8
T48SSILL
 62
8
 10
3826.473
 20
-8188.708
 30
387.328
 70
    32
  0
VERTEX
  8
T48SSILL
 62
8
 10
3834.332
 20
-8188.725
 30
387.335
 70
    32
  0
VERTEX
  8
T48SSILL
 62
8
 10
3838.904
 20
-8186.747
 30
387.328
 70
    32
  0
VERTEX
  8
T48SSILL
 62
8
 10
3844.854
 20
-8181.380
 30
387.302
 70
    32
  0
VERTEX
  8
T48SSILL
 62
8
 10
3845.584
 20
-8174.208
 30
387.262
 70
    32
  0
VERTEX
  8
T48SSILL
 62
8
 10
3912.480
 20
-8126.883
 30
387.053
 70
    32
  0
VERTEX
  8
T48SSILL
 62
8
 10
3915.552
 20
-8125.547
 30
387.048
 70
    32
  0
VERTEX
  8
T48SSILL
 62
8
 10
3918.635
 20
-8128.017
 30
387.065
 70
    32
  0
VERTEX
  8
T48SSILL
 62
8
 10
3926.598
 20
-8124.691
 30
387.053
 70
    32
  0
VERTEX
  8
T48SSILL
 62
8
 10
3931.461
 20
-8117.054
 30
387.014
 70
    32
  0
VERTEX
  8
T48SSILL
 62
8
 10
3931.467
 20
-8112.363
 30
386.987
 70
    32
  0
VERTEX
  8
T48SSILL
 62
8
 10
3972.616
 20
-8082.130
 30
386.870
 70
    32
  0
VERTEX
  8
T48SSILL
 62
8
 10
3978.155
 20
-8073.462
 30
386.838
 70
    32
  0
VERTEX
  8
T48SSILL
 62
8
 10
3980.706
 20
-8059.423
 30
386.780
 70
    32
  0
VERTEX
  8
T48SSILL
 62
8
 10
3999.459
 20
-8087.028
 30
386.940
 70
    32
  0
VERTEX
  8
T48SSILL
 62
8
 10
4002.754
 20
-8098.282
 30
386.995
 70
    32
  0
VERTEX
  8
T48SSILL
 62
8
 10
3989.997
 20
-8180.142
 30
387.277
 70
    32
  0
VERTEX
  8
T48SSILL
 62
8
 10
3975.958
 20
-8174.104
 30
387.273
 70
    32
  0
VERTEX
  8
T48SSILL
 62
8
 10
3949.692
 20
-8166.067
 30
387.276
 70
    32
  0
VERTEX
  8
T48SSILL
 62
8
 10
3927.812
 20
-8152.153
 30
387.210
 70
    32
  0
VERTEX
  8
T48SSILL
 62
8
 10
3923.570
 20
-8150.952
 30
387.200
 70
    32
  0
VERTEX
  8
T48SSILL
 62
8
 10
3915.035
 20
-8151.965
 30
387.198
 70
    32
  0
VERTEX
  8
T48SSILL
 62
8
 10
3906.109
 20
-8146.066
 30
387.156
 70
    32
  0
VERTEX
  8
T48SSILL
 62
8
 10
3892.015
 20
-8159.358
 30
387.219
 70
    32
  0
VERTEX
  8
T48SSILL
 62
8
 10
3882.586
 20
-8164.283
 30
387.239
 70
    32
  0
VERTEX
  8
T48SSILL
 62
8
 10
3877.602
 20
-8169.174
 30
387.262
 70
    32
  0
VERTEX
  8
T48SSILL
 62
8
 10
3865.178
 20
-8190.855
 30
387.375
 70
    32
  0
VERTEX
  8
T48SSILL
 62
8
 10
3884.082
 20
-8203.204
 30
387.454
 70
    32
  0
VERTEX
  8
T48SSILL
 62
8
 10
3893.061
 20
-8206.448
 30
387.455
 70
    32
  0
VERTEX
  8
T48SSILL
 62
8
 10
3906.492
 20
-8208.455
 30
387.447
 70
    32
  0
VERTEX
  8
T48SSILL
 62
8
 10
3939.939
 20
-8223.754
 30
387.459
 70
    32
  0
VERTEX
  8
T48SSILL
 62
8
 10
3959.986
 20
-8212.831
 30
387.405
 70
    32
  0
SEQEND
  8
T48SSILL
  0
POLYLINE
  8
T48SSILL
 62
8
 66
     1
 70
     9
  0
VERTEX
  8
T48SSILL
 62
8
 10
3973.117
 20
-7670.794
 30
386.837
 70
    32
  0
VERTEX
  8
T48SSILL
 62
8
 10
3974.380
 20
-7669.876
 30
386.834
 70
    32
  0
VERTEX
  8
T48SSILL
 62
8
 10
3979.425
 20
-7672.764
 30
386.835
 70
    32
  0
VERTEX
  8
T48SSILL
 62
8
 10
3986.517
 20
-7664.338
 30
386.812
 70
    32
  0
VERTEX
  8
T48SSILL
 62
8
 10
3990.311
 20
-7663.548
 30
386.807
 70
    32
  0
VERTEX
  8
T48SSILL
 62
8
 10
3994.576
 20
-7658.596
 30
386.794
 70
    32
  0
VERTEX
  8
T48SSILL
 62
8
 10
4007.297
 20
-7654.162
 30
386.774
 70
    32
  0
VERTEX
  8
T48SSILL
 62
8
 10
4013.302
 20
-7648.600
 30
386.758
 70
    32
  0
VERTEX
  8
T48SSILL
 62
8
 10
4018.543
 20
-7650.253
 30
386.757
 70
    32
  0
VERTEX
  8
T48SSILL
 62
8
 10
4051.381
 20
-7608.720
 30
386.648
 70
    32
  0
VERTEX
  8
T48SSILL
 62
8
 10
4119.207
 20
-7560.340
 30
386.494
 70
    32
  0
VERTEX
  8
T48SSILL
 62
8
 10
4116.217
 20
-7554.869
 30
386.486
 70
    32
  0
VERTEX
  8
T48SSILL
 62
8
 10
4118.266
 20
-7550.323
 30
386.476
 70
    32
  0
VERTEX
  8
T48SSILL
 62
8
 10
4117.470
 20
-7546.971
 30
386.470
 70
    32
  0
VERTEX
  8
T48SSILL
 62
8
 10
4115.243
 20
-7544.657
 30
386.468
 70
    32
  0
VERTEX
  8
T48SSILL
 62
8
 10
4119.274
 20
-7539.983
 30
386.455
 70
    32
  0
VERTEX
  8
T48SSILL
 62
8
 10
4129.085
 20
-7553.494
 30
386.472
 70
    32
  0
VERTEX
  8
T48SSILL
 62
8
 10
4132.159
 20
-7551.262
 30
386.465
 70
    32
  0
VERTEX
  8
T48SSILL
 62
8
 10
4136.439
 20
-7543.023
 30
386.446
 70
    32
  0
VERTEX
  8
T48SSILL
 62
8
 10
4143.453
 20
-7535.090
 30
386.424
 70
    32
  0
VERTEX
  8
T48SSILL
 62
8
 10
4153.469
 20
-7498.665
 30
386.345
 70
    32
  0
VERTEX
  8
T48SSILL
 62
8
 10
4147.014
 20
-7470.380
 30
386.296
 70
    32
  0
VERTEX
  8
T48SSILL
 62
8
 10
4139.948
 20
-7459.898
 30
386.282
 70
    32
  0
VERTEX
  8
T48SSILL
 62
8
 10
4148.591
 20
-7454.059
 30
386.263
 70
    32
  0
VERTEX
  8
T48SSILL
 62
8
 10
4160.314
 20
-7473.059
 30
386.289
 70
    32
  0
VERTEX
  8
T48SSILL
 62
8
 10
4162.535
 20
-7465.442
 30
386.273
 70
    32
  0
VERTEX
  8
T48SSILL
 62
8
 10
4170.951
 20
-7467.410
 30
386.269
 70
    32
  0
VERTEX
  8
T48SSILL
 62
8
 10
4153.513
 20
-7527.894
 30
386.401
 70
    32
  0
VERTEX
  8
T48SSILL
 62
8
 10
4157.394
 20
-7532.938
 30
386.408
 70
    32
  0
VERTEX
  8
T48SSILL
 62
8
 10
4164.269
 20
-7528.272
 30
386.393
 70
    32
  0
VERTEX
  8
T48SSILL
 62
8
 10
4162.410
 20
-7520.451
 30
386.379
 70
    32
  0
VERTEX
  8
T48SSILL
 62
8
 10
4168.078
 20
-7515.025
 30
386.364
 70
    32
  0
VERTEX
  8
T48SSILL
 62
8
 10
4167.103
 20
-7507.217
 30
386.349
 70
    32
  0
VERTEX
  8
T48SSILL
 62
8
 10
4169.262
 20
-7503.574
 30
386.340
 70
    32
  0
VERTEX
  8
T48SSILL
 62
8
 10
4173.551
 20
-7500.460
 30
386.331
 70
    32
  0
VERTEX
  8
T48SSILL
 62
8
 10
4175.597
 20
-7500.721
 30
386.329
 70
    32
  0
VERTEX
  8
T48SSILL
 62
8
 10
4185.013
 20
-7513.536
 30
386.346
 70
    32
  0
VERTEX
  8
T48SSILL
 62
8
 10
4220.977
 20
-7486.984
 30
386.263
 70
    32
  0
VERTEX
  8
T48SSILL
 62
8
 10
4225.580
 20
-7480.693
 30
386.247
 70
    32
  0
VERTEX
  8
T48SSILL
 62
8
 10
4228.070
 20
-7468.185
 30
386.228
 70
    32
  0
VERTEX
  8
T48SSILL
 62
8
 10
4226.862
 20
-7459.454
 30
386.228
 70
    32
  0
VERTEX
  8
T48SSILL
 62
8
 10
4181.915
 20
-7393.626
 30
386.225
 70
    32
  0
VERTEX
  8
T48SSILL
 62
8
 10
4176.795
 20
-7408.813
 30
386.225
 70
    32
  0
VERTEX
  8
T48SSILL
 62
8
 10
4167.274
 20
-7418.489
 30
386.224
 70
    32
  0
VERTEX
  8
T48SSILL
 62
8
 10
4074.464
 20
-7484.997
 30
386.388
 70
    32
  0
VERTEX
  8
T48SSILL
 62
8
 10
4083.833
 20
-7496.802
 30
386.403
 70
    32
  0
VERTEX
  8
T48SSILL
 62
8
 10
4091.418
 20
-7516.073
 30
386.433
 70
    32
  0
VERTEX
  8
T48SSILL
 62
8
 10
4087.244
 20
-7518.863
 30
386.443
 70
    32
  0
VERTEX
  8
T48SSILL
 62
8
 10
4081.468
 20
-7512.499
 30
386.435
 70
    32
  0
VERTEX
  8
T48SSILL
 62
8
 10
4059.848
 20
-7494.980
 30
386.421
 70
    32
  0
VERTEX
  8
T48SSILL
 62
8
 10
4007.832
 20
-7532.871
 30
386.540
 70
    32
  0
VERTEX
  8
T48SSILL
 62
8
 10
4003.634
 20
-7526.891
 30
386.532
 70
    32
  0
VERTEX
  8
T48SSILL
 62
8
 10
4058.713
 20
-7487.228
 30
386.407
 70
    32
  0
VERTEX
  8
T48SSILL
 62
8
 10
4057.270
 20
-7484.470
 30
386.403
 70
    32
  0
VERTEX
  8
T48SSILL
 62
8
 10
4040.009
 20
-7474.661
 30
386.399
 70
    32
  0
VERTEX
  8
T48SSILL
 62
8
 10
4018.543
 20
-7457.356
 30
386.385
 70
    32
  0
VERTEX
  8
T48SSILL
 62
8
 10
4009.892
 20
-7448.507
 30
386.375
 70
    32
  0
VERTEX
  8
T48SSILL
 62
8
 10
4003.883
 20
-7447.844
 30
386.379
 70
    32
  0
VERTEX
  8
T48SSILL
 62
8
 10
4007.288
 20
-7436.605
 30
386.354
 70
    32
  0
VERTEX
  8
T48SSILL
 62
8
 10
4006.588
 20
-7432.770
 30
386.348
 70
    32
  0
VERTEX
  8
T48SSILL
 62
8
 10
4011.128
 20
-7423.859
 30
386.326
 70
    32
  0
VERTEX
  8
T48SSILL
 62
8
 10
4015.891
 20
-7417.066
 30
386.309
 70
    32
  0
VERTEX
  8
T48SSILL
 62
8
 10
4022.361
 20
-7414.902
 30
386.299
 70
    32
  0
VERTEX
  8
T48SSILL
 62
8
 10
4027.616
 20
-7408.189
 30
386.282
 70
    32
  0
VERTEX
  8
T48SSILL
 62
8
 10
4029.576
 20
-7406.995
 30
386.278
 70
    32
  0
VERTEX
  8
T48SSILL
 62
8
 10
4032.002
 20
-7412.624
 30
386.286
 70
    32
  0
VERTEX
  8
T48SSILL
 62
8
 10
4035.303
 20
-7414.044
 30
386.286
 70
    32
  0
VERTEX
  8
T48SSILL
 62
8
 10
4052.031
 20
-7434.109
 30
386.310
 70
    32
  0
VERTEX
  8
T48SSILL
 62
8
 10
4057.913
 20
-7452.221
 30
386.340
 70
    32
  0
VERTEX
  8
T48SSILL
 62
8
 10
4071.583
 20
-7478.285
 30
386.378
 70
    32
  0
VERTEX
  8
T48SSILL
 62
8
 10
4164.484
 20
-7411.603
 30
386.223
 70
    32
  0
VERTEX
  8
T48SSILL
 62
8
 10
4172.225
 20
-7402.014
 30
386.224
 70
    32
  0
VERTEX
  8
T48SSILL
 62
8
 10
4175.419
 20
-7388.975
 30
386.225
 70
    32
  0
VERTEX
  8
T48SSILL
 62
8
 10
4174.158
 20
-7383.156
 30
386.225
 70
    32
  0
VERTEX
  8
T48SSILL
 62
8
 10
4111.031
 20
-7293.987
 30
386.220
 70
    32
  0
VERTEX
  8
T48SSILL
 62
8
 10
4104.874
 20
-7310.897
 30
386.219
 70
    32
  0
VERTEX
  8
T48SSILL
 62
8
 10
4097.056
 20
-7319.022
 30
386.219
 70
    32
  0
VERTEX
  8
T48SSILL
 62
8
 10
3951.557
 20
-7423.689
 30
386.379
 70
    32
  0
VERTEX
  8
T48SSILL
 62
8
 10
3955.458
 20
-7429.559
 30
386.387
 70
    32
  0
VERTEX
  8
T48SSILL
 62
8
 10
3987.245
 20
-7414.045
 30
386.329
 70
    32
  0
VERTEX
  8
T48SSILL
 62
8
 10
3992.258
 20
-7421.609
 30
386.339
 70
    32
  0
VERTEX
  8
T48SSILL
 62
8
 10
3994.994
 20
-7427.667
 30
386.348
 70
    32
  0
VERTEX
  8
T48SSILL
 62
8
 10
3989.699
 20
-7431.914
 30
386.361
 70
    32
  0
VERTEX
  8
T48SSILL
 62
8
 10
3991.209
 20
-7454.801
 30
386.404
 70
    32
  0
VERTEX
  8
T48SSILL
 62
8
 10
3998.875
 20
-7468.157
 30
386.423
 70
    32
  0
VERTEX
  8
T48SSILL
 62
8
 10
3995.361
 20
-7483.163
 30
386.455
 70
    32
  0
VERTEX
  8
T48SSILL
 62
8
 10
4002.019
 20
-7487.589
 30
386.458
 70
    32
  0
VERTEX
  8
T48SSILL
 62
8
 10
4007.728
 20
-7508.321
 30
386.493
 70
    32
  0
VERTEX
  8
T48SSILL
 62
8
 10
4000.993
 20
-7513.280
 30
386.508
 70
    32
  0
VERTEX
  8
T48SSILL
 62
8
 10
3993.350
 20
-7497.846
 30
386.485
 70
    32
  0
VERTEX
  8
T48SSILL
 62
8
 10
3985.679
 20
-7491.111
 30
386.479
 70
    32
  0
VERTEX
  8
T48SSILL
 62
8
 10
3961.676
 20
-7463.050
 30
386.446
 70
    32
  0
VERTEX
  8
T48SSILL
 62
8
 10
3948.920
 20
-7443.379
 30
386.419
 70
    32
  0
VERTEX
  8
T48SSILL
 62
8
 10
3950.803
 20
-7435.297
 30
386.402
 70
    32
  0
VERTEX
  8
T48SSILL
 62
8
 10
3945.873
 20
-7427.999
 30
386.392
 70
    32
  0
VERTEX
  8
T48SSILL
 62
8
 10
3922.127
 20
-7445.641
 30
386.447
 70
    32
  0
VERTEX
  8
T48SSILL
 62
8
 10
3917.817
 20
-7439.958
 30
386.440
 70
    32
  0
VERTEX
  8
T48SSILL
 62
8
 10
3942.169
 20
-7422.855
 30
386.386
 70
    32
  0
VERTEX
  8
T48SSILL
 62
8
 10
3892.695
 20
-7352.494
 30
386.293
 70
    32
  0
VERTEX
  8
T48SSILL
 62
8
 10
3887.023
 20
-7330.759
 30
386.251
 70
    32
  0
VERTEX
  8
T48SSILL
 62
8
 10
3888.939
 20
-7312.782
 30
386.219
 70
    32
  0
VERTEX
  8
T48SSILL
 62
8
 10
3891.628
 20
-7306.723
 30
386.206
 70
    32
  0
VERTEX
  8
T48SSILL
 62
8
 10
3870.928
 20
-7320.345
 30
386.212
 70
    32
  0
VERTEX
  8
T48SSILL
 62
8
 10
3873.148
 20
-7323.845
 30
386.221
 70
    32
  0
VERTEX
  8
T48SSILL
 62
8
 10
3863.115
 20
-7331.144
 30
386.223
 70
    32
  0
VERTEX
  8
T48SSILL
 62
8
 10
3860.993
 20
-7328.227
 30
386.215
 70
    32
  0
VERTEX
  8
T48SSILL
 62
8
 10
3785.577
 20
-7381.462
 30
386.223
 70
    32
  0
VERTEX
  8
T48SSILL
 62
8
 10
3788.269
 20
-7385.162
 30
386.233
 70
    32
  0
VERTEX
  8
T48SSILL
 62
8
 10
3778.417
 20
-7392.111
 30
386.235
 70
    32
  0
VERTEX
  8
T48SSILL
 62
8
 10
3775.674
 20
-7388.340
 30
386.224
 70
    32
  0
VERTEX
  8
T48SSILL
 62
8
 10
3706.791
 20
-7437.692
 30
386.233
 70
    32
  0
VERTEX
  8
T48SSILL
 62
8
 10
3709.043
 20
-7441.386
 30
386.243
 70
    32
  0
VERTEX
  8
T48SSILL
 62
8
 10
3698.603
 20
-7448.873
 30
386.245
 70
    32
  0
VERTEX
  8
T48SSILL
 62
8
 10
3695.931
 20
-7445.050
 30
386.234
 70
    32
  0
VERTEX
  8
T48SSILL
 62
8
 10
3626.041
 20
-7495.815
 30
386.245
 70
    32
  0
VERTEX
  8
T48SSILL
 62
8
 10
3627.606
 20
-7499.467
 30
386.254
 70
    32
  0
VERTEX
  8
T48SSILL
 62
8
 10
3619.259
 20
-7505.205
 30
386.254
 70
    32
  0
VERTEX
  8
T48SSILL
 62
8
 10
3617.079
 20
-7502.654
 30
386.247
 70
    32
  0
VERTEX
  8
T48SSILL
 62
8
 10
3543.283
 20
-7555.076
 30
386.189
 70
    32
  0
VERTEX
  8
T48SSILL
 62
8
 10
3544.402
 20
-7559.161
 30
386.198
 70
    32
  0
VERTEX
  8
T48SSILL
 62
8
 10
3517.663
 20
-7831.529
 30
386.681
 70
    32
  0
VERTEX
  8
T48SSILL
 62
8
 10
3524.338
 20
-7843.113
 30
386.712
 70
    32
  0
VERTEX
  8
T48SSILL
 62
8
 10
3526.025
 20
-7850.377
 30
386.730
 70
    32
  0
VERTEX
  8
T48SSILL
 62
8
 10
3523.031
 20
-7857.341
 30
386.745
 70
    32
  0
VERTEX
  8
T48SSILL
 62
8
 10
3670.880
 20
-8066.842
 30
387.198
 70
    32
  0
VERTEX
  8
T48SSILL
 62
8
 10
3678.234
 20
-8069.835
 30
387.181
 70
    32
  0
VERTEX
  8
T48SSILL
 62
8
 10
3693.909
 20
-8062.748
 30
387.077
 70
    32
  0
VERTEX
  8
T48SSILL
 62
8
 10
3711.857
 20
-8060.660
 30
386.987
 70
    32
  0
VERTEX
  8
T48SSILL
 62
8
 10
3715.185
 20
-8061.212
 30
386.975
 70
    32
  0
VERTEX
  8
T48SSILL
 62
8
 10
3721.815
 20
-8071.239
 30
386.996
 70
    32
  0
VERTEX
  8
T48SSILL
 62
8
 10
3727.116
 20
-8074.398
 30
386.989
 70
    32
  0
VERTEX
  8
T48SSILL
 62
8
 10
3894.476
 20
-7954.446
 30
386.523
 70
    32
  0
VERTEX
  8
T48SSILL
 62
8
 10
3888.990
 20
-7938.277
 30
386.547
 70
    32
  0
VERTEX
  8
T48SSILL
 62
8
 10
3872.290
 20
-7906.889
 30
386.565
 70
    32
  0
VERTEX
  8
T48SSILL
 62
8
 10
3808.443
 20
-7951.698
 30
386.500
 70
    32
  0
VERTEX
  8
T48SSILL
 62
8
 10
3804.403
 20
-7945.140
 30
386.542
 70
    32
  0
VERTEX
  8
T48SSILL
 62
8
 10
3869.829
 20
-7898.762
 30
386.581
 70
    32
  0
VERTEX
  8
T48SSILL
 62
8
 10
3862.870
 20
-7888.104
 30
386.652
 70
    32
  0
VERTEX
  8
T48SSILL
 62
8
 10
3875.319
 20
-7879.849
 30
386.662
 70
    32
  0
VERTEX
  8
T48SSILL
 62
8
 10
3882.158
 20
-7890.023
 30
386.662
 70
    32
  0
VERTEX
  8
T48SSILL
 62
8
 10
3919.852
 20
-7863.303
 30
386.921
 70
    32
  0
VERTEX
  8
T48SSILL
 62
8
 10
3857.330
 20
-7868.064
 30
386.764
 70
    32
  0
VERTEX
  8
T48SSILL
 62
8
 10
3857.848
 20
-7874.102
 30
386.733
 70
    32
  0
VERTEX
  8
T48SSILL
 62
8
 10
3846.083
 20
-7877.089
 30
386.752
 70
    32
  0
VERTEX
  8
T48SSILL
 62
8
 10
3843.731
 20
-7876.382
 30
386.762
 70
    32
  0
VERTEX
  8
T48SSILL
 62
8
 10
3840.141
 20
-7869.392
 30
386.806
 70
    32
  0
VERTEX
  8
T48SSILL
 62
8
 10
3767.125
 20
-7874.818
 30
386.985
 70
    32
  0
VERTEX
  8
T48SSILL
 62
8
 10
3767.705
 20
-7867.886
 30
387.016
 70
    32
  0
VERTEX
  8
T48SSILL
 62
8
 10
3835.957
 20
-7862.936
 30
386.848
 70
    32
  0
VERTEX
  8
T48SSILL
 62
8
 10
3850.134
 20
-7857.246
 30
386.836
 70
    32
  0
VERTEX
  8
T48SSILL
 62
8
 10
3861.627
 20
-7860.863
 30
386.786
 70
    32
  0
VERTEX
  8
T48SSILL
 62
8
 10
3941.779
 20
-7854.024
 30
386.869
 70
    32
  0
VERTEX
  8
T48SSILL
 62
8
 10
3952.994
 20
-7855.885
 30
386.829
 70
    32
  0
VERTEX
  8
T48SSILL
 62
8
 10
3938.746
 20
-7835.666
 30
386.899
 70
    32
  0
VERTEX
  8
T48SSILL
 62
8
 10
3937.247
 20
-7836.304
 30
386.903
 70
    32
  0
VERTEX
  8
T48SSILL
 62
8
 10
3931.460
 20
-7828.823
 30
386.931
 70
    32
  0
VERTEX
  8
T48SSILL
 62
8
 10
3930.780
 20
-7825.291
 30
386.937
 70
    32
  0
VERTEX
  8
T48SSILL
 62
8
 10
3891.121
 20
-7768.946
 30
387.080
 70
    32
  0
VERTEX
  8
T48SSILL
 62
8
 10
3885.271
 20
-7786.274
 30
387.078
 70
    32
  0
VERTEX
  8
T48SSILL
 62
8
 10
3885.171
 20
-7804.049
 30
386.993
 70
    32
  0
VERTEX
  8
T48SSILL
 62
8
 10
3873.199
 20
-7819.348
 30
386.953
 70
    32
  0
VERTEX
  8
T48SSILL
 62
8
 10
3865.045
 20
-7844.841
 30
386.853
 70
    32
  0
VERTEX
  8
T48SSILL
 62
8
 10
3858.831
 20
-7842.987
 30
386.880
 70
    32
  0
VERTEX
  8
T48SSILL
 62
8
 10
3849.820
 20
-7849.977
 30
386.872
 70
    32
  0
VERTEX
  8
T48SSILL
 62
8
 10
3848.270
 20
-7849.783
 30
386.877
 70
    32
  0
VERTEX
  8
T48SSILL
 62
8
 10
3839.242
 20
-7807.257
 30
387.081
 70
    32
  0
VERTEX
  8
T48SSILL
 62
8
 10
3853.298
 20
-7791.227
 30
387.070
 70
    32
  0
VERTEX
  8
T48SSILL
 62
8
 10
3859.543
 20
-7780.676
 30
387.059
 70
    32
  0
VERTEX
  8
T48SSILL
 62
8
 10
3860.144
 20
-7773.621
 30
387.046
 70
    32
  0
VERTEX
  8
T48SSILL
 62
8
 10
3857.807
 20
-7765.953
 30
387.028
 70
    32
  0
VERTEX
  8
T48SSILL
 62
8
 10
3863.115
 20
-7764.110
 30
387.032
 70
    32
  0
VERTEX
  8
T48SSILL
 62
8
 10
3865.654
 20
-7768.267
 30
387.043
 70
    32
  0
VERTEX
  8
T48SSILL
 62
8
 10
3877.252
 20
-7774.307
 30
387.071
 70
    32
  0
VERTEX
  8
T48SSILL
 62
8
 10
3879.603
 20
-7773.494
 30
387.073
 70
    32
  0
VERTEX
  8
T48SSILL
 62
8
 10
3881.856
 20
-7765.257
 30
387.060
 70
    32
  0
VERTEX
  8
T48SSILL
 62
8
 10
3881.334
 20
-7754.660
 30
387.043
 70
    32
  0
VERTEX
  8
T48SSILL
 62
8
 10
3818.876
 20
-7667.814
 30
386.803
 70
    32
  0
VERTEX
  8
T48SSILL
 62
8
 10
3824.952
 20
-7663.250
 30
386.802
 70
    32
  0
VERTEX
  8
T48SSILL
 62
8
 10
3918.959
 20
-7796.168
 30
387.009
 70
    32
  0
VERTEX
  8
T48SSILL
 62
8
 10
3920.971
 20
-7795.488
 30
387.003
 70
    32
  0
VERTEX
  8
T48SSILL
 62
8
 10
3922.046
 20
-7777.559
 30
387.018
 70
    32
  0
VERTEX
  8
T48SSILL
 62
8
 10
3925.316
 20
-7769.680
 30
387.016
 70
    32
  0
VERTEX
  8
T48SSILL
 62
8
 10
3964.725
 20
-7719.578
 30
386.936
 70
    32
  0
VERTEX
  8
T48SSILL
 62
8
 10
3967.686
 20
-7702.907
 30
386.903
 70
    32
  0
VERTEX
  8
T48SSILL
 62
8
 10
3965.336
 20
-7682.230
 30
386.866
 70
    32
  0
VERTEX
  8
T48SSILL
 62
8
 10
3971.461
 20
-7675.494
 30
386.847
 70
    32
  0
SEQEND
  8
T48SSILL
  0
POLYLINE
  8
T48SSILL
 62
8
 66
     1
 70
     9
  0
VERTEX
  8
T48SSILL
 62
8
 10
3968.722
 20
-7331.376
 30
386.207
 70
    32
  0
VERTEX
  8
T48SSILL
 62
8
 10
4057.725
 20
-7267.718
 30
386.216
 70
    32
  0
VERTEX
  8
T48SSILL
 62
8
 10
4066.437
 20
-7257.972
 30
386.217
 70
    32
  0
VERTEX
  8
T48SSILL
 62
8
 10
4069.766
 20
-7247.982
 30
386.217
 70
    32
  0
VERTEX
  8
T48SSILL
 62
8
 10
4069.934
 20
-7238.423
 30
386.217
 70
    32
  0
VERTEX
  8
T48SSILL
 62
8
 10
4062.288
 20
-7224.944
 30
386.217
 70
    32
  0
VERTEX
  8
T48SSILL
 62
8
 10
4057.921
 20
-7206.826
 30
386.216
 70
    32
  0
VERTEX
  8
T48SSILL
 62
8
 10
4058.565
 20
-7193.561
 30
386.217
 70
    32
  0
VERTEX
  8
T48SSILL
 62
8
 10
4061.523
 20
-7185.465
 30
386.217
 70
    32
  0
VERTEX
  8
T48SSILL
 62
8
 10
4053.224
 20
-7191.115
 30
386.216
 70
    32
  0
VERTEX
  8
T48SSILL
 62
8
 10
4055.016
 20
-7194.055
 30
386.216
 70
    32
  0
VERTEX
  8
T48SSILL
 62
8
 10
4044.626
 20
-7201.320
 30
386.215
 70
    32
  0
VERTEX
  8
T48SSILL
 62
8
 10
4042.631
 20
-7198.851
 30
386.215
 70
    32
  0
VERTEX
  8
T48SSILL
 62
8
 10
3953.931
 20
-7260.938
 30
386.206
 70
    32
  0
VERTEX
  8
T48SSILL
 62
8
 10
3956.397
 20
-7264.476
 30
386.207
 70
    32
  0
VERTEX
  8
T48SSILL
 62
8
 10
3946.060
 20
-7272.105
 30
386.206
 70
    32
  0
VERTEX
  8
T48SSILL
 62
8
 10
3943.608
 20
-7268.883
 30
386.205
 70
    32
  0
VERTEX
  8
T48SSILL
 62
8
 10
3903.884
 20
-7297.680
 30
386.201
 70
    32
  0
VERTEX
  8
T48SSILL
 62
8
 10
3896.464
 20
-7310.726
 30
386.210
 70
    32
  0
VERTEX
  8
T48SSILL
 62
8
 10
3894.115
 20
-7320.120
 30
386.230
 70
    32
  0
VERTEX
  8
T48SSILL
 62
8
 10
3893.862
 20
-7331.368
 30
386.252
 70
    32
  0
VERTEX
  8
T48SSILL
 62
8
 10
3896.800
 20
-7345.090
 30
386.276
 70
    32
  0
VERTEX
  8
T48SSILL
 62
8
 10
3900.184
 20
-7352.200
 30
386.286
 70
    32
  0
VERTEX
  8
T48SSILL
 62
8
 10
3947.730
 20
-7418.526
 30
386.372
 70
    32
  0
VERTEX
  8
T48SSILL
 62
8
 10
4090.983
 20
-7315.258
 30
386.218
 70
    32
  0
VERTEX
  8
T48SSILL
 62
8
 10
4100.930
 20
-7304.516
 30
386.219
 70
    32
  0
VERTEX
  8
T48SSILL
 62
8
 10
4103.332
 20
-7290.527
 30
386.219
 70
    32
  0
VERTEX
  8
T48SSILL
 62
8
 10
4101.754
 20
-7282.008
 30
386.219
 70
    32
  0
VERTEX
  8
T48SSILL
 62
8
 10
4097.164
 20
-7275.333
 30
386.219
 70
    32
  0
VERTEX
  8
T48SSILL
 62
8
 10
4091.444
 20
-7277.934
 30
386.219
 70
    32
  0
VERTEX
  8
T48SSILL
 62
8
 10
4081.563
 20
-7300.671
 30
386.217
 70
    32
  0
VERTEX
  8
T48SSILL
 62
8
 10
4074.428
 20
-7308.087
 30
386.217
 70
    32
  0
VERTEX
  8
T48SSILL
 62
8
 10
4068.247
 20
-7310.802
 30
386.216
 70
    32
  0
VERTEX
  8
T48SSILL
 62
8
 10
3974.355
 20
-7377.765
 30
386.270
 70
    32
  0
VERTEX
  8
T48SSILL
 62
8
 10
3970.762
 20
-7372.324
 30
386.263
 70
    32
  0
VERTEX
  8
T48SSILL
 62
8
 10
4065.469
 20
-7304.233
 30
386.216
 70
    32
  0
VERTEX
  8
T48SSILL
 62
8
 10
4065.378
 20
-7301.695
 30
386.216
 70
    32
  0
VERTEX
  8
T48SSILL
 62
8
 10
4077.028
 20
-7292.112
 30
386.217
 70
    32
  0
VERTEX
  8
T48SSILL
 62
8
 10
4085.711
 20
-7272.082
 30
386.218
 70
    32
  0
VERTEX
  8
T48SSILL
 62
8
 10
4086.044
 20
-7260.343
 30
386.218
 70
    32
  0
VERTEX
  8
T48SSILL
 62
8
 10
4077.505
 20
-7248.484
 30
386.218
 70
    32
  0
VERTEX
  8
T48SSILL
 62
8
 10
4073.530
 20
-7260.892
 30
386.217
 70
    32
  0
VERTEX
  8
T48SSILL
 62
8
 10
4067.067
 20
-7269.995
 30
386.216
 70
    32
  0
VERTEX
  8
T48SSILL
 62
8
 10
3972.686
 20
-7337.634
 30
386.207
 70
    32
  0
SEQEND
  8
T48SSILL
  0
POLYLINE
  8
T48SSILL
 62
8
 66
     1
 70
     9
  0
VERTEX
  8
T48SSILL
 62
8
 10
4162.134
 20
-7537.906
 30
386.413
 70
    32
  0
VERTEX
  8
T48SSILL
 62
8
 10
4132.192
 20
-7559.427
 30
386.481
 70
    32
  0
VERTEX
  8
T48SSILL
 62
8
 10
4156.851
 20
-7600.151
 30
386.411
 70
    32
  0
VERTEX
  8
T48SSILL
 62
8
 10
4156.099
 20
-7607.685
 30
386.406
 70
    32
  0
VERTEX
  8
T48SSILL
 62
8
 10
4159.900
 20
-7615.625
 30
386.384
 70
    32
  0
VERTEX
  8
T48SSILL
 62
8
 10
4147.460
 20
-7625.859
 30
386.416
 70
    32
  0
VERTEX
  8
T48SSILL
 62
8
 10
4133.312
 20
-7609.383
 30
386.481
 70
    32
  0
VERTEX
  8
T48SSILL
 62
8
 10
4127.033
 20
-7607.501
 30
386.505
 70
    32
  0
VERTEX
  8
T48SSILL
 62
8
 10
4123.015
 20
-7603.322
 30
386.523
 70
    32
  0
VERTEX
  8
T48SSILL
 62
8
 10
4120.846
 20
-7603.041
 30
386.531
 70
    32
  0
VERTEX
  8
T48SSILL
 62
8
 10
4115.952
 20
-7606.376
 30
386.544
 70
    32
  0
VERTEX
  8
T48SSILL
 62
8
 10
4113.415
 20
-7594.462
 30
386.565
 70
    32
  0
VERTEX
  8
T48SSILL
 62
8
 10
4105.222
 20
-7579.121
 30
386.543
 70
    32
  0
VERTEX
  8
T48SSILL
 62
8
 10
4058.913
 20
-7611.876
 30
386.647
 70
    32
  0
VERTEX
  8
T48SSILL
 62
8
 10
3933.327
 20
-7771.769
 30
386.986
 70
    32
  0
VERTEX
  8
T48SSILL
 62
8
 10
3929.245
 20
-7778.056
 30
386.993
 70
    32
  0
VERTEX
  8
T48SSILL
 62
8
 10
3927.491
 20
-7794.734
 30
386.981
 70
    32
  0
VERTEX
  8
T48SSILL
 62
8
 10
3933.946
 20
-7802.389
 30
386.951
 70
    32
  0
VERTEX
  8
T48SSILL
 62
8
 10
3934.513
 20
-7805.459
 30
386.946
 70
    32
  0
VERTEX
  8
T48SSILL
 62
8
 10
3942.484
 20
-7808.554
 30
386.915
 70
    32
  0
VERTEX
  8
T48SSILL
 62
8
 10
3942.116
 20
-7811.533
 30
386.913
 70
    32
  0
VERTEX
  8
T48SSILL
 62
8
 10
3953.084
 20
-7826.711
 30
386.860
 70
    32
  0
VERTEX
  8
T48SSILL
 62
8
 10
3944.925
 20
-7832.766
 30
386.881
 70
    32
  0
VERTEX
  8
T48SSILL
 62
8
 10
3970.437
 20
-7868.176
 30
386.756
 70
    32
  0
VERTEX
  8
T48SSILL
 62
8
 10
3983.947
 20
-7877.909
 30
386.700
 70
    32
  0
VERTEX
  8
T48SSILL
 62
8
 10
3995.878
 20
-7878.853
 30
386.658
 70
    32
  0
VERTEX
  8
T48SSILL
 62
8
 10
4001.504
 20
-7877.279
 30
386.641
 70
    32
  0
VERTEX
  8
T48SSILL
 62
8
 10
4079.775
 20
-7820.878
 30
386.472
 70
    32
  0
VERTEX
  8
T48SSILL
 62
8
 10
4081.544
 20
-7817.300
 30
386.469
 70
    32
  0
VERTEX
  8
T48SSILL
 62
8
 10
4071.301
 20
-7799.736
 30
386.487
 70
    32
  0
VERTEX
  8
T48SSILL
 62
8
 10
4069.452
 20
-7787.867
 30
386.506
 70
    32
  0
VERTEX
  8
T48SSILL
 62
8
 10
4065.715
 20
-7781.519
 30
386.526
 70
    32
  0
VERTEX
  8
T48SSILL
 62
8
 10
4067.378
 20
-7772.232
 30
386.530
 70
    32
  0
VERTEX
  8
T48SSILL
 62
8
 10
4066.615
 20
-7766.671
 30
386.538
 70
    32
  0
VERTEX
  8
T48SSILL
 62
8
 10
4061.841
 20
-7757.691
 30
386.564
 70
    32
  0
VERTEX
  8
T48SSILL
 62
8
 10
4066.351
 20
-7755.181
 30
386.552
 70
    32
  0
VERTEX
  8
T48SSILL
 62
8
 10
4070.488
 20
-7755.015
 30
386.538
 70
    32
  0
VERTEX
  8
T48SSILL
 62
8
 10
4082.197
 20
-7776.101
 30
386.475
 70
    32
  0
VERTEX
  8
T48SSILL
 62
8
 10
4088.520
 20
-7780.899
 30
386.449
 70
    32
  0
VERTEX
  8
T48SSILL
 62
8
 10
4099.765
 20
-7797.736
 30
386.462
 70
    32
  0
VERTEX
  8
T48SSILL
 62
8
 10
4104.224
 20
-7801.922
 30
386.469
 70
    32
  0
VERTEX
  8
T48SSILL
 62
8
 10
4111.605
 20
-7798.855
 30
386.472
 70
    32
  0
VERTEX
  8
T48SSILL
 62
8
 10
4153.521
 20
-7769.072
 30
386.471
 70
    32
  0
VERTEX
  8
T48SSILL
 62
8
 10
4140.617
 20
-7738.372
 30
386.428
 70
    32
  0
VERTEX
  8
T48SSILL
 62
8
 10
4138.238
 20
-7723.068
 30
386.409
 70
    32
  0
VERTEX
  8
T48SSILL
 62
8
 10
4134.690
 20
-7715.927
 30
386.399
 70
    32
  0
VERTEX
  8
T48SSILL
 62
8
 10
4128.421
 20
-7690.454
 30
386.411
 70
    32
  0
VERTEX
  8
T48SSILL
 62
8
 10
4125.770
 20
-7683.645
 30
386.427
 70
    32
  0
VERTEX
  8
T48SSILL
 62
8
 10
4119.552
 20
-7676.587
 30
386.456
 70
    32
  0
VERTEX
  8
T48SSILL
 62
8
 10
4273.375
 20
-7566.959
 30
386.341
 70
    32
  0
VERTEX
  8
T48SSILL
 62
8
 10
4281.516
 20
-7555.917
 30
386.335
 70
    32
  0
VERTEX
  8
T48SSILL
 62
8
 10
4283.589
 20
-7545.240
 30
386.325
 70
    32
  0
VERTEX
  8
T48SSILL
 62
8
 10
4281.985
 20
-7535.814
 30
386.314
 70
    32
  0
VERTEX
  8
T48SSILL
 62
8
 10
4269.415
 20
-7518.956
 30
386.286
 70
    32
  0
VERTEX
  8
T48SSILL
 62
8
 10
4248.034
 20
-7534.919
 30
386.288
 70
    32
  0
VERTEX
  8
T48SSILL
 62
8
 10
4243.778
 20
-7529.057
 30
386.278
 70
    32
  0
VERTEX
  8
T48SSILL
 62
8
 10
4265.581
 20
-7513.224
 30
386.277
 70
    32
  0
VERTEX
  8
T48SSILL
 62
8
 10
4235.447
 20
-7471.126
 30
386.229
 70
    32
  0
VERTEX
  8
T48SSILL
 62
8
 10
4233.603
 20
-7479.562
 30
386.237
 70
    32
  0
VERTEX
  8
T48SSILL
 62
8
 10
4224.252
 20
-7493.449
 30
386.272
 70
    32
  0
VERTEX
  8
T48SSILL
 62
8
 10
4182.318
 20
-7523.399
 30
386.367
 70
    32
  0
VERTEX
  8
T48SSILL
 62
8
 10
4190.785
 20
-7537.680
 30
386.363
 70
    32
  0
VERTEX
  8
T48SSILL
 62
8
 10
4194.336
 20
-7535.058
 30
386.354
 70
    32
  0
VERTEX
  8
T48SSILL
 62
8
 10
4219.282
 20
-7568.764
 30
386.303
 70
    32
  0
VERTEX
  8
T48SSILL
 62
8
 10
4214.639
 20
-7572.592
 30
386.303
 70
    32
  0
VERTEX
  8
T48SSILL
 62
8
 10
4204.192
 20
-7558.144
 30
386.296
 70
    32
  0
VERTEX
  8
T48SSILL
 62
8
 10
4189.383
 20
-7568.845
 30
386.335
 70
    32
  0
VERTEX
  8
T48SSILL
 62
8
 10
4200.051
 20
-7584.218
 30
386.305
 70
    32
  0
VERTEX
  8
T48SSILL
 62
8
 10
4195.162
 20
-7588.004
 30
386.305
 70
    32
  0
VERTEX
  8
T48SSILL
 62
8
 10
4172.688
 20
-7556.873
 30
386.404
 70
    32
  0
VERTEX
  8
T48SSILL
 62
8
 10
4162.308
 20
-7537.781
 30
386.413
 70
    32
  0
SEQEND
  8
T48SSILL
  0
POLYLINE
  8
T48SSILL
 62
8
 66
     1
 70
     9
  0
VERTEX
  8
T48SSILL
 62
8
 10
4529.159
 20
-8019.932
 30
386.869
 70
    32
  0
VERTEX
  8
T48SSILL
 62
8
 10
4517.267
 20
-8010.772
 30
386.871
 70
    32
  0
VERTEX
  8
T48SSILL
 62
8
 10
4511.550
 20
-8003.350
 30
386.872
 70
    32
  0
VERTEX
  8
T48SSILL
 62
8
 10
4562.681
 20
-7967.312
 30
386.846
 70
    32
  0
VERTEX
  8
T48SSILL
 62
8
 10
4570.651
 20
-7958.140
 30
386.842
 70
    32
  0
VERTEX
  8
T48SSILL
 62
8
 10
4574.922
 20
-7943.574
 30
386.837
 70
    32
  0
VERTEX
  8
T48SSILL
 62
8
 10
4579.270
 20
-7948.671
 30
386.837
 70
    32
  0
VERTEX
  8
T48SSILL
 62
8
 10
4576.875
 20
-7952.756
 30
386.839
 70
    32
  0
VERTEX
  8
T48SSILL
 62
8
 10
4583.172
 20
-7962.669
 30
386.838
 70
    32
  0
VERTEX
  8
T48SSILL
 62
8
 10
4580.310
 20
-7969.900
 30
386.841
 70
    32
  0
VERTEX
  8
T48SSILL
 62
8
 10
4587.813
 20
-7981.660
 30
386.841
 70
    32
  0
VERTEX
  8
T48SSILL
 62
8
 10
4581.707
 20
-7986.006
 30
386.844
 70
    32
  0
VERTEX
  8
T48SSILL
 62
8
 10
4585.674
 20
-7991.732
 30
386.844
 70
    32
  0
VERTEX
  8
T48SSILL
 62
8
 10
4602.259
 20
-7979.604
 30
386.835
 70
    32
  0
VERTEX
  8
T48SSILL
 62
8
 10
4603.691
 20
-7981.616
 30
386.835
 70
    32
  0
VERTEX
  8
T48SSILL
 62
8
 10
4594.349
 20
-8031.446
 30
386.849
 70
    32
  0
VERTEX
  8
T48SSILL
 62
8
 10
4589.478
 20
-8038.592
 30
386.852
 70
    32
  0
VERTEX
  8
T48SSILL
 62
8
 10
4572.207
 20
-8051.052
 30
386.861
 70
    32
  0
VERTEX
  8
T48SSILL
 62
8
 10
4565.895
 20
-8043.471
 30
386.861
 70
    32
  0
VERTEX
  8
T48SSILL
 62
8
 10
4532.987
 20
-8022.628
 30
386.868
 70
    32
  0
SEQEND
  8
T48SSILL
  0
POLYLINE
  8
T48SSILL
 62
8
 66
     1
 70
     9
  0
VERTEX
  8
T48SSILL
 62
8
 10
4657.931
 20
-8067.256
 30
386.835
 70
    32
  0
VERTEX
  8
T48SSILL
 62
8
 10
4652.351
 20
-8102.404
 30
386.844
 70
    32
  0
VERTEX
  8
T48SSILL
 62
8
 10
4645.881
 20
-8108.723
 30
386.847
 70
    32
  0
VERTEX
  8
T48SSILL
 62
8
 10
4643.079
 20
-8108.129
 30
386.848
 70
    32
  0
VERTEX
  8
T48SSILL
 62
8
 10
4639.721
 20
-8099.913
 30
386.848
 70
    32
  0
VERTEX
  8
T48SSILL
 62
8
 10
4644.363
 20
-8094.878
 30
386.845
 70
    32
  0
VERTEX
  8
T48SSILL
 62
8
 10
4644.189
 20
-8077.145
 30
386.841
 70
    32
  0
VERTEX
  8
T48SSILL
 62
8
 10
4647.126
 20
-8067.586
 30
386.838
 70
    32
  0
VERTEX
  8
T48SSILL
 62
8
 10
4650.193
 20
-8066.269
 30
386.837
 70
    32
  0
VERTEX
  8
T48SSILL
 62
8
 10
4655.399
 20
-8066.893
 30
386.835
 70
    32
  0
SEQEND
  8
T48SSILL
  0
POLYLINE
  8
T48SSILL
 62
8
 66
     1
 70
     9
  0
VERTEX
  8
T48SSILL
 62
8
 10
4693.727
 20
-8083.339
 30
386.826
 70
    32
  0
VERTEX
  8
T48SSILL
 62
8
 10
4685.273
 20
-8082.105
 30
386.828
 70
    32
  0
VERTEX
  8
T48SSILL
 62
8
 10
4730.869
 20
-8145.109
 30
386.826
 70
    32
  0
VERTEX
  8
T48SSILL
 62
8
 10
4734.983
 20
-8149.216
 30
386.825
 70
    32
  0
VERTEX
  8
T48SSILL
 62
8
 10
4745.493
 20
-8152.883
 30
386.822
 70
    32
  0
VERTEX
  8
T48SSILL
 62
8
 10
4758.790
 20
-8151.645
 30
386.817
 70
    32
  0
VERTEX
  8
T48SSILL
 62
8
 10
4761.951
 20
-8149.395
 30
386.816
 70
    32
  0
VERTEX
  8
T48SSILL
 62
8
 10
4747.961
 20
-8118.334
 30
386.814
 70
    32
  0
VERTEX
  8
T48SSILL
 62
8
 10
4743.851
 20
-8106.324
 30
386.813
 70
    32
  0
VERTEX
  8
T48SSILL
 62
8
 10
4740.593
 20
-8087.755
 30
386.810
 70
    32
  0
VERTEX
  8
T48SSILL
 62
8
 10
4735.704
 20
-8075.867
 30
386.810
 70
    32
  0
VERTEX
  8
T48SSILL
 62
8
 10
4726.811
 20
-8067.686
 30
386.811
 70
    32
  0
VERTEX
  8
T48SSILL
 62
8
 10
4709.528
 20
-8079.994
 30
386.819
 70
    32
  0
VERTEX
  8
T48SSILL
 62
8
 10
4697.202
 20
-8083.355
 30
386.824
 70
    32
  0
SEQEND
  8
T48SSILL
  0
POLYLINE
  8
T48SSILL
 62
8
 66
     1
 70
     9
  0
VERTEX
  8
T48SSILL
 62
8
 10
4552.980
 20
-7898.622
 30
386.835
 70
    32
  0
VERTEX
  8
T48SSILL
 62
8
 10
4583.948
 20
-7876.682
 30
386.820
 70
    32
  0
VERTEX
  8
T48SSILL
 62
8
 10
4588.251
 20
-7882.609
 30
386.820
 70
    32
  0
VERTEX
  8
T48SSILL
 62
8
 10
4557.349
 20
-7904.165
 30
386.835
 70
    32
  0
VERTEX
  8
T48SSILL
 62
8
 10
4569.487
 20
-7917.189
 30
386.834
 70
    32
  0
VERTEX
  8
T48SSILL
 62
8
 10
4578.570
 20
-7920.705
 30
386.831
 70
    32
  0
VERTEX
  8
T48SSILL
 62
8
 10
4586.815
 20
-7921.355
 30
386.829
 70
    32
  0
VERTEX
  8
T48SSILL
 62
8
 10
4601.532
 20
-7914.504
 30
386.822
 70
    32
  0
VERTEX
  8
T48SSILL
 62
8
 10
4660.732
 20
-7871.701
 30
386.793
 70
    32
  0
VERTEX
  8
T48SSILL
 62
8
 10
4636.910
 20
-7832.380
 30
386.793
 70
    32
  0
VERTEX
  8
T48SSILL
 62
8
 10
4612.627
 20
-7797.513
 30
386.794
 70
    32
  0
VERTEX
  8
T48SSILL
 62
8
 10
4561.306
 20
-7834.007
 30
386.819
 70
    32
  0
VERTEX
  8
T48SSILL
 62
8
 10
4552.872
 20
-7837.059
 30
386.823
 70
    32
  0
VERTEX
  8
T48SSILL
 62
8
 10
4541.915
 20
-7837.464
 30
386.827
 70
    32
  0
VERTEX
  8
T48SSILL
 62
8
 10
4538.588
 20
-7845.440
 30
386.829
 70
    32
  0
VERTEX
  8
T48SSILL
 62
8
 10
4525.358
 20
-7851.027
 30
386.835
 70
    32
  0
VERTEX
  8
T48SSILL
 62
8
 10
4522.290
 20
-7855.897
 30
386.837
 70
    32
  0
VERTEX
  8
T48SSILL
 62
8
 10
4552.908
 20
-7898.655
 30
386.836
 70
    32
  0
SEQEND
  8
T48SSILL
  0
POLYLINE
  8
T48SSILL
 62
8
 66
     1
 70
     9
  0
VERTEX
  8
T48SSILL
 62
8
 10
4672.061
 20
-7863.511
 30
386.787
 70
    32
  0
VERTEX
  8
T48SSILL
 62
8
 10
4661.791
 20
-7850.118
 30
386.788
 70
    32
  0
VERTEX
  8
T48SSILL
 62
8
 10
4651.175
 20
-7825.957
 30
386.787
 70
    32
  0
VERTEX
  8
T48SSILL
 62
8
 10
4627.745
 20
-7802.327
 30
386.790
 70
    32
  0
VERTEX
  8
T48SSILL
 62
8
 10
4621.171
 20
-7791.357
 30
386.790
 70
    32
  0
VERTEX
  8
T48SSILL
 62
8
 10
4633.626
 20
-7782.384
 30
386.783
 70
    32
  0
VERTEX
  8
T48SSILL
 62
8
 10
4638.553
 20
-7786.136
 30
386.783
 70
    32
  0
VERTEX
  8
T48SSILL
 62
8
 10
4648.225
 20
-7788.803
 30
386.780
 70
    32
  0
VERTEX
  8
T48SSILL
 62
8
 10
4650.777
 20
-7791.644
 30
386.780
 70
    32
  0
VERTEX
  8
T48SSILL
 62
8
 10
4655.913
 20
-7792.333
 30
386.778
 70
    32
  0
VERTEX
  8
T48SSILL
 62
8
 10
4659.725
 20
-7785.959
 30
386.775
 70
    32
  0
VERTEX
  8
T48SSILL
 62
8
 10
4649.381
 20
-7771.034
 30
386.776
 70
    32
  0
VERTEX
  8
T48SSILL
 62
8
 10
4656.464
 20
-7765.931
 30
386.772
 70
    32
  0
VERTEX
  8
T48SSILL
 62
8
 10
4664.943
 20
-7765.076
 30
386.769
 70
    32
  0
VERTEX
  8
T48SSILL
 62
8
 10
4669.083
 20
-7766.038
 30
386.768
 70
    32
  0
VERTEX
  8
T48SSILL
 62
8
 10
4673.494
 20
-7773.185
 30
386.768
 70
    32
  0
VERTEX
  8
T48SSILL
 62
8
 10
4700.010
 20
-7799.495
 30
386.764
 70
    32
  0
VERTEX
  8
T48SSILL
 62
8
 10
4707.066
 20
-7811.906
 30
386.764
 70
    32
  0
VERTEX
  8
T48SSILL
 62
8
 10
4712.768
 20
-7826.681
 30
386.765
 70
    32
  0
VERTEX
  8
T48SSILL
 62
8
 10
4703.574
 20
-7840.726
 30
386.772
 70
    32
  0
VERTEX
  8
T48SSILL
 62
8
 10
4672.117
 20
-7863.470
 30
386.787
 70
    32
  0
SEQEND
  8
T48SSILL
  0
POLYLINE
  8
T48SSILL
 62
8
 66
     1
 70
     9
  0
VERTEX
  8
T48SSILL
 62
8
 10
4800.865
 20
-7770.184
 30
386.721
 70
    32
  0
VERTEX
  8
T48SSILL
 62
8
 10
4796.637
 20
-7765.256
 30
386.720
 70
    32
  0
VERTEX
  8
T48SSILL
 62
8
 10
4800.623
 20
-7761.570
 30
386.714
 70
    32
  0
VERTEX
  8
T48SSILL
 62
8
 10
4800.098
 20
-7759.455
 30
386.713
 70
    32
  0
VERTEX
  8
T48SSILL
 62
8
 10
4790.650
 20
-7752.522
 30
386.714
 70
    32
  0
VERTEX
  8
T48SSILL
 62
8
 10
4784.335
 20
-7742.073
 30
386.711
 70
    32
  0
VERTEX
  8
T48SSILL
 62
8
 10
4767.966
 20
-7731.931
 30
386.715
 70
    32
  0
VERTEX
  8
T48SSILL
 62
8
 10
4749.355
 20
-7699.077
 30
386.703
 70
    32
  0
VERTEX
  8
T48SSILL
 62
8
 10
4709.947
 20
-7727.705
 30
386.746
 70
    32
  0
VERTEX
  8
T48SSILL
 62
8
 10
4741.643
 20
-7771.105
 30
386.744
 70
    32
  0
VERTEX
  8
T48SSILL
 62
8
 10
4734.186
 20
-7775.843
 30
386.748
 70
    32
  0
VERTEX
  8
T48SSILL
 62
8
 10
4702.859
 20
-7732.506
 30
386.749
 70
    32
  0
VERTEX
  8
T48SSILL
 62
8
 10
4678.734
 20
-7749.886
 30
386.761
 70
    32
  0
VERTEX
  8
T48SSILL
 62
8
 10
4687.368
 20
-7769.418
 30
386.762
 70
    32
  0
VERTEX
  8
T48SSILL
 62
8
 10
4692.712
 20
-7776.662
 30
386.762
 70
    32
  0
VERTEX
  8
T48SSILL
 62
8
 10
4699.658
 20
-7783.420
 30
386.761
 70
    32
  0
VERTEX
  8
T48SSILL
 62
8
 10
4720.439
 20
-7798.115
 30
386.757
 70
    32
  0
VERTEX
  8
T48SSILL
 62
8
 10
4728.300
 20
-7806.929
 30
386.756
 70
    32
  0
VERTEX
  8
T48SSILL
 62
8
 10
4738.594
 20
-7802.993
 30
386.752
 70
    32
  0
VERTEX
  8
T48SSILL
 62
8
 10
4757.278
 20
-7801.897
 30
386.745
 70
    32
  0
VERTEX
  8
T48SSILL
 62
8
 10
4758.708
 20
-7800.863
 30
386.744
 70
    32
  0
VERTEX
  8
T48SSILL
 62
8
 10
4753.019
 20
-7792.674
 30
386.745
 70
    32
  0
VERTEX
  8
T48SSILL
 62
8
 10
4766.237
 20
-7783.857
 30
386.738
 70
    32
  0
VERTEX
  8
T48SSILL
 62
8
 10
4777.385
 20
-7786.776
 30
386.735
 70
    32
  0
VERTEX
  8
T48SSILL
 62
8
 10
4800.533
 20
-7770.606
 30
386.722
 70
    32
  0
SEQEND
  8
T48SSILL
  0
POLYLINE
  8
T48SSILL
 62
8
 66
     1
 70
     9
  0
VERTEX
  8
T48SSILL
 62
8
 10
4612.941
 20
-7680.510
 30
386.720
 70
    32
  0
VERTEX
  8
T48SSILL
 62
8
 10
4617.362
 20
-7696.488
 30
386.741
 70
    32
  0
VERTEX
  8
T48SSILL
 62
8
 10
4631.786
 20
-7710.602
 30
386.769
 70
    32
  0
VERTEX
  8
T48SSILL
 62
8
 10
4632.106
 20
-7712.429
 30
386.769
 70
    32
  0
VERTEX
  8
T48SSILL
 62
8
 10
4628.130
 20
-7716.433
 30
386.772
 70
    32
  0
VERTEX
  8
T48SSILL
 62
8
 10
4616.736
 20
-7723.093
 30
386.777
 70
    32
  0
VERTEX
  8
T48SSILL
 62
8
 10
4612.887
 20
-7723.764
 30
386.778
 70
    32
  0
VERTEX
  8
T48SSILL
 62
8
 10
4595.307
 20
-7721.074
 30
386.784
 70
    32
  0
VERTEX
  8
T48SSILL
 62
8
 10
4579.666
 20
-7704.796
 30
386.721
 70
    32
  0
VERTEX
  8
T48SSILL
 62
8
 10
4499.258
 20
-7763.450
 30
386.746
 70
    32
  0
VERTEX
  8
T48SSILL
 62
8
 10
4449.470
 20
-7755.931
 30
386.679
 70
    32
  0
VERTEX
  8
T48SSILL
 62
8
 10
4499.571
 20
-7824.473
 30
386.838
 70
    32
  0
VERTEX
  8
T48SSILL
 62
8
 10
4530.208
 20
-7828.562
 30
386.829
 70
    32
  0
VERTEX
  8
T48SSILL
 62
8
 10
4532.600
 20
-7825.680
 30
386.827
 70
    32
  0
VERTEX
  8
T48SSILL
 62
8
 10
4541.366
 20
-7826.609
 30
386.824
 70
    32
  0
VERTEX
  8
T48SSILL
 62
8
 10
4541.218
 20
-7830.065
 30
386.825
 70
    32
  0
VERTEX
  8
T48SSILL
 62
8
 10
4543.627
 20
-7830.414
 30
386.824
 70
    32
  0
VERTEX
  8
T48SSILL
 62
8
 10
4556.042
 20
-7829.626
 30
386.820
 70
    32
  0
VERTEX
  8
T48SSILL
 62
8
 10
4626.608
 20
-7779.189
 30
386.785
 70
    32
  0
VERTEX
  8
T48SSILL
 62
8
 10
4602.655
 20
-7768.412
 30
386.791
 70
    32
  0
VERTEX
  8
T48SSILL
 62
8
 10
4627.437
 20
-7756.383
 30
386.780
 70
    32
  0
VERTEX
  8
T48SSILL
 62
8
 10
4644.638
 20
-7763.882
 30
386.776
 70
    32
  0
VERTEX
  8
T48SSILL
 62
8
 10
4653.490
 20
-7759.130
 30
386.772
 70
    32
  0
VERTEX
  8
T48SSILL
 62
8
 10
4653.474
 20
-7750.708
 30
386.770
 70
    32
  0
VERTEX
  8
T48SSILL
 62
8
 10
4660.632
 20
-7744.020
 30
386.766
 70
    32
  0
VERTEX
  8
T48SSILL
 62
8
 10
4666.950
 20
-7744.088
 30
386.764
 70
    32
  0
VERTEX
  8
T48SSILL
 62
8
 10
4669.537
 20
-7747.992
 30
386.764
 70
    32
  0
VERTEX
  8
T48SSILL
 62
8
 10
4698.565
 20
-7726.897
 30
386.750
 70
    32
  0
VERTEX
  8
T48SSILL
 62
8
 10
4659.095
 20
-7673.432
 30
386.747
 70
    32
  0
VERTEX
  8
T48SSILL
 62
8
 10
4647.091
 20
-7667.011
 30
386.731
 70
    32
  0
VERTEX
  8
T48SSILL
 62
8
 10
4628.927
 20
-7668.842
 30
386.719
 70
    32
  0
SEQEND
  8
T48SSILL
  0
POLYLINE
  8
T48SSILL
 62
8
 66
     1
 70
     9
  0
VERTEX
  8
T48SSILL
 62
8
 10
5538.937
 20
-7430.314
 30
386.658
 70
    32
  0
VERTEX
  8
T48SSILL
 62
8
 10
5535.145
 20
-7425.106
 30
386.671
 70
    32
  0
VERTEX
  8
T48SSILL
 62
8
 10
5525.316
 20
-7431.994
 30
386.659
 70
    32
  0
VERTEX
  8
T48SSILL
 62
8
 10
5529.096
 20
-7437.185
 30
386.647
 70
    32
  0
VERTEX
  8
T48SSILL
 62
8
 10
5500.317
 20
-7457.280
 30
386.614
 70
    32
  0
VERTEX
  8
T48SSILL
 62
8
 10
5481.993
 20
-7433.721
 30
386.670
 70
    32
  0
VERTEX
  8
T48SSILL
 62
8
 10
5469.495
 20
-7433.174
 30
386.667
 70
    32
  0
VERTEX
  8
T48SSILL
 62
8
 10
5456.601
 20
-7419.715
 30
386.647
 70
    32
  0
VERTEX
  8
T48SSILL
 62
8
 10
5447.229
 20
-7422.358
 30
386.611
 70
    32
  0
VERTEX
  8
T48SSILL
 62
8
 10
5446.636
 20
-7424.724
 30
386.605
 70
    32
  0
VERTEX
  8
T48SSILL
 62
8
 10
5454.377
 20
-7439.457
 30
386.605
 70
    32
  0
VERTEX
  8
T48SSILL
 62
8
 10
5458.428
 20
-7442.425
 30
386.614
 70
    32
  0
VERTEX
  8
T48SSILL
 62
8
 10
5468.953
 20
-7444.155
 30
386.646
 70
    32
  0
VERTEX
  8
T48SSILL
 62
8
 10
5476.093
 20
-7449.041
 30
386.639
 70
    32
  0
VERTEX
  8
T48SSILL
 62
8
 10
5480.303
 20
-7453.301
 30
386.629
 70
    32
  0
VERTEX
  8
T48SSILL
 62
8
 10
5487.651
 20
-7466.259
 30
386.599
 70
    32
  0
VERTEX
  8
T48SSILL
 62
8
 10
5466.391
 20
-7481.572
 30
386.573
 70
    32
  0
VERTEX
  8
T48SSILL
 62
8
 10
5458.053
 20
-7481.402
 30
386.546
 70
    32
  0
VERTEX
  8
T48SSILL
 62
8
 10
5453.406
 20
-7478.965
 30
386.534
 70
    32
  0
VERTEX
  8
T48SSILL
 62
8
 10
5421.700
 20
-7504.253
 30
386.384
 70
    32
  0
VERTEX
  8
T48SSILL
 62
8
 10
5410.971
 20
-7510.778
 30
386.360
 70
    32
  0
VERTEX
  8
T48SSILL
 62
8
 10
5415.561
 20
-7518.184
 30
386.355
 70
    32
  0
VERTEX
  8
T48SSILL
 62
8
 10
5373.694
 20
-7548.341
 30
386.253
 70
    32
  0
VERTEX
  8
T48SSILL
 62
8
 10
5379.015
 20
-7554.626
 30
386.251
 70
    32
  0
VERTEX
  8
T48SSILL
 62
8
 10
5421.279
 20
-7524.142
 30
386.354
 70
    32
  0
VERTEX
  8
T48SSILL
 62
8
 10
5439.292
 20
-7551.795
 30
386.361
 70
    32
  0
VERTEX
  8
T48SSILL
 62
8
 10
5483.439
 20
-7519.958
 30
386.486
 70
    32
  0
VERTEX
  8
T48SSILL
 62
8
 10
5477.798
 20
-7505.899
 30
386.518
 70
    32
  0
VERTEX
  8
T48SSILL
 62
8
 10
5472.885
 20
-7486.921
 30
386.560
 70
    32
  0
VERTEX
  8
T48SSILL
 62
8
 10
5492.848
 20
-7472.523
 30
386.584
 70
    32
  0
VERTEX
  8
T48SSILL
 62
8
 10
5498.822
 20
-7470.883
 30
386.585
 70
    32
  0
VERTEX
  8
T48SSILL
 62
8
 10
5502.860
 20
-7465.749
 30
386.595
 70
    32
  0
VERTEX
  8
T48SSILL
 62
8
 10
5534.738
 20
-7442.537
 30
386.634
 70
    32
  0
VERTEX
  8
T48SSILL
 62
8
 10
5539.879
 20
-7443.075
 30
386.631
 70
    32
  0
VERTEX
  8
T48SSILL
 62
8
 10
5545.369
 20
-7439.074
 30
386.637
 70
    32
  0
VERTEX
  8
T48SSILL
 62
8
 10
5543.333
 20
-7436.279
 30
386.644
 70
    32
  0
VERTEX
  8
T48SSILL
 62
8
 10
5558.845
 20
-7424.222
 30
386.664
 70
    32
  0
VERTEX
  8
T48SSILL
 62
8
 10
5564.716
 20
-7417.250
 30
386.677
 70
    32
  0
VERTEX
  8
T48SSILL
 62
8
 10
5567.596
 20
-7411.856
 30
386.688
 70
    32
  0
VERTEX
  8
T48SSILL
 62
8
 10
5569.287
 20
-7403.412
 30
386.705
 70
    32
  0
VERTEX
  8
T48SSILL
 62
8
 10
5622.352
 20
-7474.803
 30
386.536
 70
    32
  0
VERTEX
  8
T48SSILL
 62
8
 10
5624.509
 20
-7485.494
 30
386.512
 70
    32
  0
VERTEX
  8
T48SSILL
 62
8
 10
5622.415
 20
-7494.760
 30
386.493
 70
    32
  0
VERTEX
  8
T48SSILL
 62
8
 10
5616.282
 20
-7503.208
 30
386.477
 70
    32
  0
VERTEX
  8
T48SSILL
 62
8
 10
5599.942
 20
-7515.416
 30
386.457
 70
    32
  0
VERTEX
  8
T48SSILL
 62
8
 10
5597.545
 20
-7514.625
 30
386.459
 70
    32
  0
VERTEX
  8
T48SSILL
 62
8
 10
5585.831
 20
-7500.206
 30
386.494
 70
    32
  0
VERTEX
  8
T48SSILL
 62
8
 10
5579.342
 20
-7480.794
 30
386.537
 70
    32
  0
VERTEX
  8
T48SSILL
 62
8
 10
5568.700
 20
-7460.860
 30
386.583
 70
    32
  0
VERTEX
  8
T48SSILL
 62
8
 10
5563.184
 20
-7446.490
 30
386.616
 70
    32
  0
VERTEX
  8
T48SSILL
 62
8
 10
5546.661
 20
-7458.287
 30
386.596
 70
    32
  0
VERTEX
  8
T48SSILL
 62
8
 10
5550.174
 20
-7471.047
 30
386.568
 70
    32
  0
VERTEX
  8
T48SSILL
 62
8
 10
5541.915
 20
-7495.594
 30
386.518
 70
    32
  0
VERTEX
  8
T48SSILL
 62
8
 10
5554.669
 20
-7506.898
 30
386.490
 70
    32
  0
VERTEX
  8
T48SSILL
 62
8
 10
5572.987
 20
-7513.076
 30
386.471
 70
    32
  0
VERTEX
  8
T48SSILL
 62
8
 10
5580.244
 20
-7528.378
 30
386.436
 70
    32
  0
VERTEX
  8
T48SSILL
 62
8
 10
5516.181
 20
-7574.454
 30
386.359
 70
    32
  0
VERTEX
  8
T48SSILL
 62
8
 10
5512.588
 20
-7565.860
 30
386.379
 70
    32
  0
VERTEX
  8
T48SSILL
 62
8
 10
5501.765
 20
-7556.217
 30
386.403
 70
    32
  0
VERTEX
  8
T48SSILL
 62
8
 10
5497.091
 20
-7548.387
 30
386.421
 70
    32
  0
VERTEX
  8
T48SSILL
 62
8
 10
5485.364
 20
-7537.006
 30
386.449
 70
    32
  0
VERTEX
  8
T48SSILL
 62
8
 10
5472.291
 20
-7541.605
 30
386.444
 70
    32
  0
VERTEX
  8
T48SSILL
 62
8
 10
5456.590
 20
-7555.631
 30
386.413
 70
    32
  0
VERTEX
  8
T48SSILL
 62
8
 10
5463.807
 20
-7570.419
 30
386.385
 70
    32
  0
VERTEX
  8
T48SSILL
 62
8
 10
5473.830
 20
-7582.142
 30
386.357
 70
    32
  0
VERTEX
  8
T48SSILL
 62
8
 10
5483.551
 20
-7597.105
 30
386.322
 70
    32
  0
VERTEX
  8
T48SSILL
 62
8
 10
5470.259
 20
-7607.049
 30
386.305
 70
    32
  0
VERTEX
  8
T48SSILL
 62
8
 10
5475.318
 20
-7613.742
 30
386.289
 70
    32
  0
VERTEX
  8
T48SSILL
 62
8
 10
5496.058
 20
-7599.502
 30
386.313
 70
    32
  0
VERTEX
  8
T48SSILL
 62
8
 10
5501.632
 20
-7603.560
 30
386.302
 70
    32
  0
VERTEX
  8
T48SSILL
 62
8
 10
5510.971
 20
-7598.574
 30
386.310
 70
    32
  0
VERTEX
  8
T48SSILL
 62
8
 10
5510.923
 20
-7588.878
 30
386.330
 70
    32
  0
VERTEX
  8
T48SSILL
 62
8
 10
5620.896
 20
-7510.647
 30
386.460
 70
    32
  0
VERTEX
  8
T48SSILL
 62
8
 10
5628.407
 20
-7501.550
 30
386.477
 70
    32
  0
VERTEX
  8
T48SSILL
 62
8
 10
5632.449
 20
-7488.311
 30
386.503
 70
    32
  0
VERTEX
  8
T48SSILL
 62
8
 10
5641.004
 20
-7500.099
 30
386.475
 70
    32
  0
VERTEX
  8
T48SSILL
 62
8
 10
5643.509
 20
-7506.544
 30
386.461
 70
    32
  0
VERTEX
  8
T48SSILL
 62
8
 10
5644.539
 20
-7514.572
 30
386.443
 70
    32
  0
VERTEX
  8
T48SSILL
 62
8
 10
5641.370
 20
-7525.680
 30
386.421
 70
    32
  0
VERTEX
  8
T48SSILL
 62
8
 10
5624.538
 20
-7558.131
 30
386.358
 70
    32
  0
VERTEX
  8
T48SSILL
 62
8
 10
5582.668
 20
-7588.507
 30
386.307
 70
    32
  0
VERTEX
  8
T48SSILL
 62
8
 10
5579.979
 20
-7584.247
 30
386.317
 70
    32
  0
VERTEX
  8
T48SSILL
 62
8
 10
5570.539
 20
-7590.924
 30
386.306
 70
    32
  0
VERTEX
  8
T48SSILL
 62
8
 10
5573.118
 20
-7594.722
 30
386.297
 70
    32
  0
VERTEX
  8
T48SSILL
 62
8
 10
5536.979
 20
-7620.808
 30
386.254
 70
    32
  0
VERTEX
  8
T48SSILL
 62
8
 10
5533.334
 20
-7615.758
 30
386.266
 70
    32
  0
VERTEX
  8
T48SSILL
 62
8
 10
5523.566
 20
-7622.729
 30
386.254
 70
    32
  0
VERTEX
  8
T48SSILL
 62
8
 10
5527.249
 20
-7627.831
 30
386.242
 70
    32
  0
VERTEX
  8
T48SSILL
 62
8
 10
5467.762
 20
-7670.768
 30
386.171
 70
    32
  0
VERTEX
  8
T48SSILL
 62
8
 10
5457.447
 20
-7675.903
 30
386.163
 70
    32
  0
VERTEX
  8
T48SSILL
 62
8
 10
5447.708
 20
-7676.197
 30
386.166
 70
    32
  0
VERTEX
  8
T48SSILL
 62
8
 10
5439.247
 20
-7673.100
 30
386.155
 70
    32
  0
VERTEX
  8
T48SSILL
 62
8
 10
5432.777
 20
-7667.622
 30
386.155
 70
    32
  0
VERTEX
  8
T48SSILL
 62
8
 10
5406.011
 20
-7626.119
 30
386.180
 70
    32
  0
VERTEX
  8
T48SSILL
 62
8
 10
5409.253
 20
-7623.825
 30
386.188
 70
    32
  0
VERTEX
  8
T48SSILL
 62
8
 10
5402.477
 20
-7613.482
 30
386.195
 70
    32
  0
VERTEX
  8
T48SSILL
 62
8
 10
5399.018
 20
-7615.929
 30
386.186
 70
    32
  0
VERTEX
  8
T48SSILL
 62
8
 10
5347.170
 20
-7538.382
 30
386.232
 70
    32
  0
VERTEX
  8
T48SSILL
 62
8
 10
5350.193
 20
-7536.239
 30
386.239
 70
    32
  0
VERTEX
  8
T48SSILL
 62
8
 10
5344.164
 20
-7527.429
 30
386.244
 70
    32
  0
VERTEX
  8
T48SSILL
 62
8
 10
5340.721
 20
-7529.437
 30
386.237
 70
    32
  0
VERTEX
  8
T48SSILL
 62
8
 10
5280.905
 20
-7437.433
 30
386.293
 70
    32
  0
VERTEX
  8
T48SSILL
 62
8
 10
5284.165
 20
-7435.015
 30
386.301
 70
    32
  0
VERTEX
  8
T48SSILL
 62
8
 10
5277.709
 20
-7424.993
 30
386.307
 70
    32
  0
VERTEX
  8
T48SSILL
 62
8
 10
5274.021
 20
-7426.959
 30
386.299
 70
    32
  0
VERTEX
  8
T48SSILL
 62
8
 10
5245.558
 20
-7382.691
 30
386.327
 70
    32
  0
VERTEX
  8
T48SSILL
 62
8
 10
5251.737
 20
-7383.933
 30
386.334
 70
    32
  0
VERTEX
  8
T48SSILL
 62
8
 10
5264.190
 20
-7382.890
 30
386.352
 70
    32
  0
VERTEX
  8
T48SSILL
 62
8
 10
5275.756
 20
-7377.394
 30
386.376
 70
    32
  0
VERTEX
  8
T48SSILL
 62
8
 10
5436.670
 20
-7260.726
 30
386.923
 70
    32
  0
VERTEX
  8
T48SSILL
 62
8
 10
5444.179
 20
-7257.133
 30
386.937
 70
    32
  0
VERTEX
  8
T48SSILL
 62
8
 10
5454.445
 20
-7256.667
 30
386.953
 70
    32
  0
VERTEX
  8
T48SSILL
 62
8
 10
5462.220
 20
-7258.941
 30
386.964
 70
    32
  0
VERTEX
  8
T48SSILL
 62
8
 10
5469.022
 20
-7263.959
 30
386.971
 70
    32
  0
VERTEX
  8
T48SSILL
 62
8
 10
5497.200
 20
-7301.725
 30
386.946
 70
    32
  0
VERTEX
  8
T48SSILL
 62
8
 10
5501.744
 20
-7315.913
 30
386.914
 70
    32
  0
VERTEX
  8
T48SSILL
 62
8
 10
5501.851
 20
-7320.487
 30
386.904
 70
    32
  0
VERTEX
  8
T48SSILL
 62
8
 10
5498.867
 20
-7329.091
 30
386.887
 70
    32
  0
VERTEX
  8
T48SSILL
 62
8
 10
5489.563
 20
-7338.389
 30
386.870
 70
    32
  0
VERTEX
  8
T48SSILL
 62
8
 10
5475.017
 20
-7348.838
 30
386.831
 70
    32
  0
VERTEX
  8
T48SSILL
 62
8
 10
5471.853
 20
-7344.457
 30
386.828
 70
    32
  0
VERTEX
  8
T48SSILL
 62
8
 10
5462.063
 20
-7351.397
 30
386.783
 70
    32
  0
VERTEX
  8
T48SSILL
 62
8
 10
5465.271
 20
-7355.839
 30
386.786
 70
    32
  0
VERTEX
  8
T48SSILL
 62
8
 10
5328.788
 20
-7453.879
 30
386.333
 70
    32
  0
VERTEX
  8
T48SSILL
 62
8
 10
5333.124
 20
-7459.996
 30
386.330
 70
    32
  0
VERTEX
  8
T48SSILL
 62
8
 10
5435.362
 20
-7386.163
 30
386.633
 70
    32
  0
VERTEX
  8
T48SSILL
 62
8
 10
5439.008
 20
-7391.211
 30
386.637
 70
    32
  0
VERTEX
  8
T48SSILL
 62
8
 10
5448.864
 20
-7384.363
 30
386.682
 70
    32
  0
VERTEX
  8
T48SSILL
 62
8
 10
5445.091
 20
-7379.137
 30
386.678
 70
    32
  0
VERTEX
  8
T48SSILL
 62
8
 10
5469.508
 20
-7361.504
 30
386.791
 70
    32
  0
VERTEX
  8
T48SSILL
 62
8
 10
5475.718
 20
-7361.721
 30
386.811
 70
    32
  0
VERTEX
  8
T48SSILL
 62
8
 10
5480.756
 20
-7358.149
 30
386.831
 70
    32
  0
VERTEX
  8
T48SSILL
 62
8
 10
5483.459
 20
-7351.429
 30
386.845
 70
    32
  0
VERTEX
  8
T48SSILL
 62
8
 10
5501.668
 20
-7337.161
 30
386.869
 70
    32
  0
VERTEX
  8
T48SSILL
 62
8
 10
5505.918
 20
-7330.039
 30
386.883
 70
    32
  0
VERTEX
  8
T48SSILL
 62
8
 10
5508.166
 20
-7317.956
 30
386.907
 70
    32
  0
VERTEX
  8
T48SSILL
 62
8
 10
5560.744
 20
-7392.276
 30
386.732
 70
    32
  0
VERTEX
  8
T48SSILL
 62
8
 10
5561.998
 20
-7400.145
 30
386.715
 70
    32
  0
VERTEX
  8
T48SSILL
 62
8
 10
5561.209
 20
-7408.490
 30
386.697
 70
    32
  0
VERTEX
  8
T48SSILL
 62
8
 10
5557.564
 20
-7415.399
 30
386.684
 70
    32
  0
VERTEX
  8
T48SSILL
 62
8
 10
5550.947
 20
-7421.928
 30
386.672
 70
    32
  0
SEQEND
  8
T48SSILL
  0
POLYLINE
  8
T48SSILL
 62
8
 66
     1
 70
     9
  0
VERTEX
  8
T48SSILL
 62
8
 10
5821.423
 20
-7366.627
 30
386.809
 70
    32
  0
VERTEX
  8
T48SSILL
 62
8
 10
5682.813
 20
-7466.580
 30
386.633
 70
    32
  0
VERTEX
  8
T48SSILL
 62
8
 10
5684.707
 20
-7479.345
 30
386.593
 70
    32
  0
VERTEX
  8
T48SSILL
 62
8
 10
5684.111
 20
-7481.713
 30
386.584
 70
    32
  0
VERTEX
  8
T48SSILL
 62
8
 10
5678.073
 20
-7487.390
 30
386.557
 70
    32
  0
VERTEX
  8
T48SSILL
 62
8
 10
5673.418
 20
-7486.466
 30
386.554
 70
    32
  0
VERTEX
  8
T48SSILL
 62
8
 10
5671.215
 20
-7476.780
 30
386.584
 70
    32
  0
VERTEX
  8
T48SSILL
 62
8
 10
5668.255
 20
-7473.360
 30
386.591
 70
    32
  0
VERTEX
  8
T48SSILL
 62
8
 10
5662.717
 20
-7475.007
 30
386.578
 70
    32
  0
VERTEX
  8
T48SSILL
 62
8
 10
5645.640
 20
-7475.627
 30
386.553
 70
    32
  0
VERTEX
  8
T48SSILL
 62
8
 10
5632.059
 20
-7472.477
 30
386.545
 70
    32
  0
VERTEX
  8
T48SSILL
 62
8
 10
5659.713
 20
-7510.650
 30
386.455
 70
    32
  0
VERTEX
  8
T48SSILL
 62
8
 10
5801.785
 20
-7409.171
 30
386.985
 70
    32
  0
VERTEX
  8
T48SSILL
 62
8
 10
5807.238
 20
-7397.356
 30
387.005
 70
    32
  0
SEQEND
  8
T48SSILL
  0
POLYLINE
  8
T48SSILL
 62
8
 66
     1
 70
     9
  0
VERTEX
  8
T48SSILL
 62
8
 10
5647.842
 20
-7364.719
 30
386.928
 70
    32
  0
VERTEX
  8
T48SSILL
 62
8
 10
5733.801
 20
-7302.993
 30
387.083
 70
    32
  0
VERTEX
  8
T48SSILL
 62
8
 10
5742.447
 20
-7307.565
 30
387.082
 70
    32
  0
VERTEX
  8
T48SSILL
 62
8
 10
5755.800
 20
-7327.203
 30
387.065
 70
    32
  0
VERTEX
  8
T48SSILL
 62
8
 10
5760.459
 20
-7324.772
 30
387.070
 70
    32
  0
VERTEX
  8
T48SSILL
 62
8
 10
5767.211
 20
-7315.671
 30
387.084
 70
    32
  0
VERTEX
  8
T48SSILL
 62
8
 10
5778.146
 20
-7307.286
 30
387.100
 70
    32
  0
VERTEX
  8
T48SSILL
 62
8
 10
5776.654
 20
-7287.907
 30
387.122
 70
    32
  0
VERTEX
  8
T48SSILL
 62
8
 10
5780.253
 20
-7281.685
 30
387.131
 70
    32
  0
VERTEX
  8
T48SSILL
 62
8
 10
5783.943
 20
-7284.913
 30
387.129
 70
    32
  0
VERTEX
  8
T48SSILL
 62
8
 10
5789.915
 20
-7280.364
 30
387.138
 70
    32
  0
VERTEX
  8
T48SSILL
 62
8
 10
5782.620
 20
-7267.936
 30
387.149
 70
    32
  0
VERTEX
  8
T48SSILL
 62
8
 10
5816.329
 20
-7243.730
 30
387.195
 70
    32
  0
VERTEX
  8
T48SSILL
 62
8
 10
5823.949
 20
-7249.152
 30
387.192
 70
    32
  0
VERTEX
  8
T48SSILL
 62
8
 10
5830.184
 20
-7335.453
 30
386.736
 70
    32
  0
VERTEX
  8
T48SSILL
 62
8
 10
5826.516
 20
-7336.534
 30
386.814
 70
    32
  0
VERTEX
  8
T48SSILL
 62
8
 10
5827.498
 20
-7350.760
 30
386.735
 70
    32
  0
VERTEX
  8
T48SSILL
 62
8
 10
5736.342
 20
-7416.618
 30
386.873
 70
    32
  0
VERTEX
  8
T48SSILL
 62
8
 10
5732.871
 20
-7411.864
 30
386.884
 70
    32
  0
VERTEX
  8
T48SSILL
 62
8
 10
5733.907
 20
-7405.076
 30
386.908
 70
    32
  0
VERTEX
  8
T48SSILL
 62
8
 10
5741.440
 20
-7395.855
 30
386.949
 70
    32
  0
VERTEX
  8
T48SSILL
 62
8
 10
5747.918
 20
-7392.785
 30
386.968
 70
    32
  0
VERTEX
  8
T48SSILL
 62
8
 10
5750.124
 20
-7388.414
 30
386.986
 70
    32
  0
VERTEX
  8
T48SSILL
 62
8
 10
5749.679
 20
-7384.728
 30
386.993
 70
    32
  0
VERTEX
  8
T48SSILL
 62
8
 10
5746.272
 20
-7375.786
 30
387.002
 70
    32
  0
VERTEX
  8
T48SSILL
 62
8
 10
5742.531
 20
-7372.485
 30
387.004
 70
    32
  0
VERTEX
  8
T48SSILL
 62
8
 10
5737.550
 20
-7362.387
 30
387.014
 70
    32
  0
VERTEX
  8
T48SSILL
 62
8
 10
5726.723
 20
-7360.531
 30
387.011
 70
    32
  0
VERTEX
  8
T48SSILL
 62
8
 10
5707.488
 20
-7370.787
 30
386.988
 70
    32
  0
VERTEX
  8
T48SSILL
 62
8
 10
5675.150
 20
-7392.474
 30
386.872
 70
    32
  0
VERTEX
  8
T48SSILL
 62
8
 10
5671.608
 20
-7392.817
 30
386.866
 70
    32
  0
VERTEX
  8
T48SSILL
 62
8
 10
5658.741
 20
-7399.541
 30
386.826
 70
    32
  0
VERTEX
  8
T48SSILL
 62
8
 10
5653.722
 20
-7411.092
 30
386.780
 70
    32
  0
VERTEX
  8
T48SSILL
 62
8
 10
5654.083
 20
-7444.462
 30
386.669
 70
    32
  0
VERTEX
  8
T48SSILL
 62
8
 10
5659.721
 20
-7452.584
 30
386.649
 70
    32
  0
VERTEX
  8
T48SSILL
 62
8
 10
5664.872
 20
-7454.670
 30
386.649
 70
    32
  0
VERTEX
  8
T48SSILL
 62
8
 10
5667.724
 20
-7459.464
 30
386.637
 70
    32
  0
VERTEX
  8
T48SSILL
 62
8
 10
5666.847
 20
-7464.282
 30
386.620
 70
    32
  0
VERTEX
  8
T48SSILL
 62
8
 10
5655.765
 20
-7467.167
 30
386.595
 70
    32
  0
VERTEX
  8
T48SSILL
 62
8
 10
5646.450
 20
-7466.837
 30
386.584
 70
    32
  0
VERTEX
  8
T48SSILL
 62
8
 10
5629.524
 20
-7461.404
 30
386.579
 70
    32
  0
VERTEX
  8
T48SSILL
 62
8
 10
5617.774
 20
-7452.742
 30
386.592
 70
    32
  0
VERTEX
  8
T48SSILL
 62
8
 10
5570.074
 20
-7386.691
 30
386.750
 70
    32
  0
VERTEX
  8
T48SSILL
 62
8
 10
5585.477
 20
-7391.040
 30
386.756
 70
    32
  0
VERTEX
  8
T48SSILL
 62
8
 10
5603.118
 20
-7390.453
 30
386.782
 70
    32
  0
VERTEX
  8
T48SSILL
 62
8
 10
5620.159
 20
-7384.128
 30
386.826
 70
    32
  0
VERTEX
  8
T48SSILL
 62
8
 10
5638.095
 20
-7371.719
 30
386.891
 70
    32
  0
VERTEX
  8
T48SSILL
 62
8
 10
5641.903
 20
-7377.036
 30
386.879
 70
    32
  0
VERTEX
  8
T48SSILL
 62
8
 10
5651.492
 20
-7369.816
 30
386.916
 70
    32
  0
SEQEND
  8
T48SSILL
  0
POLYLINE
  8
T48SSILL
 62
8
 66
     1
 70
     9
  0
VERTEX
  8
T48SSILL
 62
8
 10
5730.185
 20
-7421.065
 30
386.849
 70
    32
  0
VERTEX
  8
T48SSILL
 62
8
 10
5723.297
 20
-7411.933
 30
386.871
 70
    32
  0
VERTEX
  8
T48SSILL
 62
8
 10
5715.228
 20
-7410.613
 30
386.864
 70
    32
  0
VERTEX
  8
T48SSILL
 62
8
 10
5706.161
 20
-7412.163
 30
386.847
 70
    32
  0
VERTEX
  8
T48SSILL
 62
8
 10
5693.777
 20
-7423.085
 30
386.794
 70
    32
  0
VERTEX
  8
T48SSILL
 62
8
 10
5680.804
 20
-7437.453
 30
386.728
 70
    32
  0
VERTEX
  8
T48SSILL
 62
8
 10
5680.551
 20
-7438.929
 30
386.723
 70
    32
  0
VERTEX
  8
T48SSILL
 62
8
 10
5689.991
 20
-7450.104
 30
386.698
 70
    32
  0
SEQEND
  8
T48SSILL
  0
POLYLINE
  8
T48SSILL
 62
8
 66
     1
 70
     9
  0
VERTEX
  8
T48SSILL
 62
8
 10
5689.266
 20
-7318.420
 30
387.043
 70
    32
  0
VERTEX
  8
T48SSILL
 62
8
 10
5692.637
 20
-7323.127
 30
387.039
 70
    32
  0
VERTEX
  8
T48SSILL
 62
8
 10
5734.561
 20
-7293.099
 30
387.096
 70
    32
  0
VERTEX
  8
T48SSILL
 62
8
 10
5731.099
 20
-7288.265
 30
387.100
 70
    32
  0
VERTEX
  8
T48SSILL
 62
8
 10
5740.935
 20
-7281.388
 30
387.113
 70
    32
  0
VERTEX
  8
T48SSILL
 62
8
 10
5744.317
 20
-7286.111
 30
387.109
 70
    32
  0
VERTEX
  8
T48SSILL
 62
8
 10
5745.286
 20
-7285.417
 30
387.110
 70
    32
  0
VERTEX
  8
T48SSILL
 62
8
 10
5748.033
 20
-7277.557
 30
387.121
 70
    32
  0
VERTEX
  8
T48SSILL
 62
8
 10
5746.154
 20
-7253.045
 30
387.149
 70
    32
  0
VERTEX
  8
T48SSILL
 62
8
 10
5742.144
 20
-7247.989
 30
387.161
 70
    32
  0
VERTEX
  8
T48SSILL
 62
8
 10
5735.999
 20
-7245.416
 30
387.167
 70
    32
  0
VERTEX
  8
T48SSILL
 62
8
 10
5734.927
 20
-7237.634
 30
387.189
 70
    32
  0
VERTEX
  8
T48SSILL
 62
8
 10
5743.050
 20
-7233.833
 30
387.202
 70
    32
  0
VERTEX
  8
T48SSILL
 62
8
 10
5747.838
 20
-7236.933
 30
387.194
 70
    32
  0
VERTEX
  8
T48SSILL
 62
8
 10
5757.745
 20
-7251.549
 30
387.157
 70
    32
  0
VERTEX
  8
T48SSILL
 62
8
 10
5766.659
 20
-7249.783
 30
387.163
 70
    32
  0
VERTEX
  8
T48SSILL
 62
8
 10
5777.703
 20
-7255.918
 30
387.161
 70
    32
  0
VERTEX
  8
T48SSILL
 62
8
 10
5787.110
 20
-7255.461
 30
387.166
 70
    32
  0
VERTEX
  8
T48SSILL
 62
8
 10
5815.599
 20
-7235.056
 30
387.219
 70
    32
  0
VERTEX
  8
T48SSILL
 62
8
 10
5813.342
 20
-7189.837
 30
387.347
 70
    32
  0
VERTEX
  8
T48SSILL
 62
8
 10
5803.730
 20
-7189.393
 30
387.346
 70
    32
  0
VERTEX
  8
T48SSILL
 62
8
 10
5803.014
 20
-7182.115
 30
387.366
 70
    32
  0
VERTEX
  8
T48SSILL
 62
8
 10
5812.236
 20
-7178.186
 30
387.380
 70
    32
  0
VERTEX
  8
T48SSILL
 62
8
 10
5818.653
 20
-7177.322
 30
387.385
 70
    32
  0
VERTEX
  8
T48SSILL
 62
8
 10
5814.720
 20
-7119.341
 30
387.549
 70
    32
  0
VERTEX
  8
T48SSILL
 62
8
 10
5559.747
 20
-7302.095
 30
387.001
 70
    32
  0
VERTEX
  8
T48SSILL
 62
8
 10
5546.104
 20
-7308.179
 30
386.981
 70
    32
  0
VERTEX
  8
T48SSILL
 62
8
 10
5534.809
 20
-7309.789
 30
386.961
 70
    32
  0
VERTEX
  8
T48SSILL
 62
8
 10
5525.011
 20
-7309.693
 30
386.948
 70
    32
  0
VERTEX
  8
T48SSILL
 62
8
 10
5512.108
 20
-7306.279
 30
386.942
 70
    32
  0
VERTEX
  8
T48SSILL
 62
8
 10
5558.346
 20
-7370.877
 30
386.787
 70
    32
  0
VERTEX
  8
T48SSILL
 62
8
 10
5575.932
 20
-7382.439
 30
386.772
 70
    32
  0
VERTEX
  8
T48SSILL
 62
8
 10
5587.791
 20
-7385.294
 30
386.778
 70
    32
  0
VERTEX
  8
T48SSILL
 62
8
 10
5607.495
 20
-7382.275
 30
386.815
 70
    32
  0
VERTEX
  8
T48SSILL
 62
8
 10
5616.042
 20
-7377.850
 30
386.841
 70
    32
  0
VERTEX
  8
T48SSILL
 62
8
 10
5682.881
 20
-7330.115
 30
387.026
 70
    32
  0
VERTEX
  8
T48SSILL
 62
8
 10
5679.648
 20
-7325.601
 30
387.030
 70
    32
  0
SEQEND
  8
T48SSILL
  0
POLYLINE
  8
T48SSILL
 62
8
 66
     1
 70
     9
  0
VERTEX
  8
T48SSILL
 62
8
 10
1110.837
 20
-8055.149
 30
387.289
 70
    32
  0
VERTEX
  8
T48SSILL
 62
8
 10
1116.709
 20
-8051.827
 30
387.291
 70
    32
  0
VERTEX
  8
T48SSILL
 62
8
 10
1112.487
 20
-8046.069
 30
387.294
 70
    32
  0
VERTEX
  8
T48SSILL
 62
8
 10
1101.014
 20
-8039.069
 30
387.297
 70
    32
  0
VERTEX
  8
T48SSILL
 62
8
 10
1100.744
 20
-8031.396
 30
387.300
 70
    32
  0
VERTEX
  8
T48SSILL
 62
8
 10
1070.485
 20
-7977.396
 30
387.325
 70
    32
  0
VERTEX
  8
T48SSILL
 62
8
 10
1072.986
 20
-7965.391
 30
387.331
 70
    32
  0
VERTEX
  8
T48SSILL
 62
8
 10
885.034
 20
-7703.930
 30
387.451
 70
    32
  0
VERTEX
  8
T48SSILL
 62
8
 10
880.039
 20
-7707.579
 30
387.449
 70
    32
  0
VERTEX
  8
T48SSILL
 62
8
 10
868.180
 20
-7817.469
 30
387.394
 70
    32
  0
VERTEX
  8
T48SSILL
 62
8
 10
901.250
 20
-7858.414
 30
387.376
 70
    32
  0
VERTEX
  8
T48SSILL
 62
8
 10
959.070
 20
-7929.999
 30
387.344
 70
    32
  0
VERTEX
  8
T48SSILL
 62
8
 10
1022.899
 20
-8008.569
 30
387.308
 70
    32
  0
VERTEX
  8
T48SSILL
 62
8
 10
1031.781
 20
-8002.494
 30
387.311
 70
    32
  0
VERTEX
  8
T48SSILL
 62
8
 10
1075.089
 20
-8067.370
 30
387.282
 70
    32
  0
VERTEX
  8
T48SSILL
 62
8
 10
1077.198
 20
-8068.010
 30
387.281
 70
    32
  0
VERTEX
  8
T48SSILL
 62
8
 10
1106.150
 20
-8054.869
 30
387.289
 70
    32
  0
VERTEX
  8
T48SSILL
 62
8
 10
1110.837
 20
-8055.149
 30
387.289
 70
    32
  0
SEQEND
  8
T48SSILL
  0
LINE
  8
T48SSILL
 62
8
 10
985.286
 20
-7288.965
 30
389.492
 11
992.150
 21
-7292.807
 31
389.547
  0
POLYLINE
  8
T48SSILL
 62
8
 66
     1
 70
     9
  0
VERTEX
  8
T48SSILL
 62
8
 10
985.286
 20
-7288.965
 30
389.492
 70
    32
  0
VERTEX
  8
T48SSILL
 62
8
 10
990.418
 20
-7283.565
 30
389.535
 70
    32
  0
VERTEX
  8
T48SSILL
 62
8
 10
995.131
 20
-7274.750
 30
389.575
 70
    32
  0
VERTEX
  8
T48SSILL
 62
8
 10
996.939
 20
-7269.594
 30
389.591
 70
    32
  0
VERTEX
  8
T48SSILL
 62
8
 10
997.501
 20
-7254.512
 30
389.598
 70
    32
  0
VERTEX
  8
T48SSILL
 62
8
 10
994.244
 20
-7241.241
 30
389.574
 70
    32
  0
VERTEX
  8
T48SSILL
 62
8
 10
984.253
 20
-7226.551
 30
389.495
 70
    32
  0
VERTEX
  8
T48SSILL
 62
8
 10
980.506
 20
-7226.667
 30
389.465
 70
    32
  0
VERTEX
  8
T48SSILL
 62
8
 10
977.086
 20
-7221.398
 30
389.438
 70
    32
  0
VERTEX
  8
T48SSILL
 62
8
 10
976.231
 20
-7215.893
 30
389.432
 70
    32
  0
VERTEX
  8
T48SSILL
 62
8
 10
964.461
 20
-7199.221
 30
389.339
 70
    32
  0
VERTEX
  8
T48SSILL
 62
8
 10
952.413
 20
-7192.934
 30
389.242
 70
    32
  0
VERTEX
  8
T48SSILL
 62
8
 10
956.164
 20
-7187.889
 30
389.274
 70
    32
  0
VERTEX
  8
T48SSILL
 62
8
 10
953.443
 20
-7183.538
 30
389.252
 70
    32
  0
VERTEX
  8
T48SSILL
 62
8
 10
945.014
 20
-7171.750
 30
389.186
 70
    32
  0
VERTEX
  8
T48SSILL
 62
8
 10
938.453
 20
-7176.556
 30
389.131
 70
    32
  0
VERTEX
  8
T48SSILL
 62
8
 10
918.837
 20
-7247.407
 30
388.957
 70
    32
  0
VERTEX
  8
T48SSILL
 62
8
 10
917.609
 20
-7265.167
 30
388.944
 70
    32
  0
VERTEX
  8
T48SSILL
 62
8
 10
920.175
 20
-7269.419
 30
388.964
 70
    32
  0
VERTEX
  8
T48SSILL
 62
8
 10
928.095
 20
-7264.386
 30
389.030
 70
    32
  0
VERTEX
  8
T48SSILL
 62
8
 10
928.913
 20
-7256.233
 30
389.038
 70
    32
  0
VERTEX
  8
T48SSILL
 62
8
 10
942.991
 20
-7245.706
 30
389.155
 70
    32
  0
VERTEX
  8
T48SSILL
 62
8
 10
946.062
 20
-7247.508
 30
389.180
 70
    32
  0
VERTEX
  8
T48SSILL
 62
8
 10
955.524
 20
-7245.178
 30
389.257
 70
    32
  0
VERTEX
  8
T48SSILL
 62
8
 10
970.805
 20
-7271.432
 30
389.377
 70
    32
  0
SEQEND
  8
T48SSILL
  0
POLYLINE
  8
T48SSILL
 62
8
 66
     1
 70
     9
  0
VERTEX
  8
T48SSILL
 62
8
 10
911.176
 20
-7240.682
 30
388.957
 70
    32
  0
VERTEX
  8
T48SSILL
 62
8
 10
932.055
 20
-7172.734
 30
389.097
 70
    32
  0
VERTEX
  8
T48SSILL
 62
8
 10
927.012
 20
-7145.809
 30
389.128
 70
    32
  0
VERTEX
  8
T48SSILL
 62
8
 10
908.886
 20
-7120.733
 30
389.095
 70
    32
  0
VERTEX
  8
T48SSILL
 62
8
 10
906.712
 20
-7120.043
 30
389.087
 70
    32
  0
VERTEX
  8
T48SSILL
 62
8
 10
899.568
 20
-7124.070
 30
389.056
 70
    32
  0
VERTEX
  8
T48SSILL
 62
8
 10
888.575
 20
-7118.832
 30
389.023
 70
    32
  0
VERTEX
  8
T48SSILL
 62
8
 10
887.800
 20
-7112.344
 30
389.028
 70
    32
  0
VERTEX
  8
T48SSILL
 62
8
 10
896.555
 20
-7103.686
 30
389.072
 70
    32
  0
VERTEX
  8
T48SSILL
 62
8
 10
890.372
 20
-7093.960
 30
389.062
 70
    32
  0
VERTEX
  8
T48SSILL
 62
8
 10
883.141
 20
-7095.513
 30
389.034
 70
    32
  0
VERTEX
  8
T48SSILL
 62
8
 10
882.610
 20
-7135.341
 30
388.979
 70
    32
  0
VERTEX
  8
T48SSILL
 62
8
 10
911.790
 20
-7149.373
 30
389.067
 70
    32
  0
VERTEX
  8
T48SSILL
 62
8
 10
907.808
 20
-7159.094
 30
389.040
 70
    32
  0
VERTEX
  8
T48SSILL
 62
8
 10
884.601
 20
-7150.085
 30
388.967
 70
    32
  0
VERTEX
  8
T48SSILL
 62
8
 10
882.125
 20
-7151.056
 30
388.956
 70
    32
  0
VERTEX
  8
T48SSILL
 62
8
 10
879.592
 20
-7200.889
 30
388.847
 70
    32
  0
VERTEX
  8
T48SSILL
 62
8
 10
906.487
 20
-7225.137
 30
388.861
 70
    32
  0
VERTEX
  8
T48SSILL
 62
8
 10
904.221
 20
-7232.579
 30
388.841
 70
    32
  0
SEQEND
  8
T48SSILL
  0
POLYLINE
  8
T48SSILL
 62
8
 66
     1
 70
     9
  0
VERTEX
  8
T48SSILL
 62
8
 10
822.309
 20
-7408.189
 30
388.138
 70
    32
  0
VERTEX
  8
T48SSILL
 62
8
 10
761.852
 20
-7452.565
 30
387.728
 70
    32
  0
VERTEX
  8
T48SSILL
 62
8
 10
755.354
 20
-7455.353
 30
387.702
 70
    32
  0
VERTEX
  8
T48SSILL
 62
8
 10
748.210
 20
-7457.409
 30
387.676
 70
    32
  0
VERTEX
  8
T48SSILL
 62
8
 10
736.955
 20
-7457.439
 30
387.643
 70
    32
  0
VERTEX
  8
T48SSILL
 62
8
 10
719.683
 20
-7452.240
 30
387.607
 70
    32
  0
VERTEX
  8
T48SSILL
 62
8
 10
711.770
 20
-7447.414
 30
387.597
 70
    32
  0
VERTEX
  8
T48SSILL
 62
8
 10
707.185
 20
-7443.545
 30
387.594
 70
    32
  0
VERTEX
  8
T48SSILL
 62
8
 10
518.337
 20
-7180.428
 30
387.651
 70
    32
  0
VERTEX
  8
T48SSILL
 62
8
 10
507.881
 20
-7161.756
 30
387.645
 70
    32
  0
VERTEX
  8
T48SSILL
 62
8
 10
504.438
 20
-7151.413
 30
387.645
 70
    32
  0
VERTEX
  8
T48SSILL
 62
8
 10
501.319
 20
-7129.561
 30
387.651
 70
    32
  0
VERTEX
  8
T48SSILL
 62
8
 10
501.696
 20
-7118.566
 30
387.654
 70
    32
  0
VERTEX
  8
T48SSILL
 62
8
 10
504.728
 20
-7098.733
 30
387.662
 70
    32
  0
VERTEX
  8
T48SSILL
 62
8
 10
508.427
 20
-7087.898
 30
387.665
 70
    32
  0
VERTEX
  8
T48SSILL
 62
8
 10
568.306
 20
-6969.948
 30
387.720
 70
    32
  0
VERTEX
  8
T48SSILL
 62
8
 10
570.321
 20
-6969.544
 30
387.727
 70
    32
  0
VERTEX
  8
T48SSILL
 62
8
 10
575.457
 20
-6973.312
 30
387.751
 70
    32
  0
VERTEX
  8
T48SSILL
 62
8
 10
578.652
 20
-6994.089
 30
387.793
 70
    32
  0
VERTEX
  8
T48SSILL
 62
8
 10
642.022
 20
-7081.348
 30
388.027
 70
    32
  0
VERTEX
  8
T48SSILL
 62
8
 10
634.008
 20
-7093.648
 30
387.988
 70
    32
  0
VERTEX
  8
T48SSILL
 62
8
 10
638.300
 20
-7100.704
 30
388.003
 70
    32
  0
VERTEX
  8
T48SSILL
 62
8
 10
649.173
 20
-7098.410
 30
388.050
 70
    32
  0
VERTEX
  8
T48SSILL
 62
8
 10
656.261
 20
-7101.384
 30
388.079
 70
    32
  0
VERTEX
  8
T48SSILL
 62
8
 10
723.924
 20
-7194.046
 30
388.320
 70
    32
  0
VERTEX
  8
T48SSILL
 62
8
 10
728.883
 20
-7213.194
 30
388.313
 70
    32
  0
VERTEX
  8
T48SSILL
 62
8
 10
736.821
 20
-7211.995
 30
388.343
 70
    32
  0
VERTEX
  8
T48SSILL
 62
8
 10
732.023
 20
-7189.967
 30
388.355
 70
    32
  0
VERTEX
  8
T48SSILL
 62
8
 10
658.494
 20
-7088.444
 30
388.094
 70
    32
  0
VERTEX
  8
T48SSILL
 62
8
 10
653.020
 20
-7076.421
 30
388.075
 70
    32
  0
VERTEX
  8
T48SSILL
 62
8
 10
649.361
 20
-7075.518
 30
388.060
 70
    32
  0
VERTEX
  8
T48SSILL
 62
8
 10
586.273
 20
-6987.172
 30
387.813
 70
    32
  0
VERTEX
  8
T48SSILL
 62
8
 10
580.846
 20
-6954.715
 30
387.741
 70
    32
  0
VERTEX
  8
T48SSILL
 62
8
 10
581.954
 20
-6941.750
 30
387.724
 70
    32
  0
VERTEX
  8
T48SSILL
 62
8
 10
631.410
 20
-6841.407
 30
387.740
 70
    32
  0
VERTEX
  8
T48SSILL
 62
8
 10
635.250
 20
-6853.317
 30
387.774
 70
    32
  0
VERTEX
  8
T48SSILL
 62
8
 10
638.973
 20
-6857.260
 30
387.794
 70
    32
  0
VERTEX
  8
T48SSILL
 62
8
 10
640.229
 20
-6873.973
 30
387.826
 70
    32
  0
VERTEX
  8
T48SSILL
 62
8
 10
643.664
 20
-6882.986
 30
387.853
 70
    32
  0
VERTEX
  8
T48SSILL
 62
8
 10
653.435
 20
-6881.299
 30
387.886
 70
    32
  0
VERTEX
  8
T48SSILL
 62
8
 10
652.115
 20
-6876.440
 30
387.873
 70
    32
  0
VERTEX
  8
T48SSILL
 62
8
 10
656.609
 20
-6869.325
 30
387.878
 70
    32
  0
VERTEX
  8
T48SSILL
 62
8
 10
732.178
 20
-6908.529
 30
388.217
 70
    32
  0
VERTEX
  8
T48SSILL
 62
8
 10
767.547
 20
-6923.208
 30
388.370
 70
    32
  0
VERTEX
  8
T48SSILL
 62
8
 10
779.314
 20
-6939.225
 30
388.439
 70
    32
  0
VERTEX
  8
T48SSILL
 62
8
 10
778.285
 20
-6943.746
 30
388.443
 70
    32
  0
VERTEX
  8
T48SSILL
 62
8
 10
780.082
 20
-6948.359
 30
388.457
 70
    32
  0
VERTEX
  8
T48SSILL
 62
8
 10
787.817
 20
-6951.175
 30
388.490
 70
    32
  0
VERTEX
  8
T48SSILL
 62
8
 10
840.005
 20
-7023.350
 30
388.798
 70
    32
  0
VERTEX
  8
T48SSILL
 62
8
 10
839.064
 20
-7031.675
 30
388.808
 70
    32
  0
VERTEX
  8
T48SSILL
 62
8
 10
846.824
 20
-7033.040
 30
388.838
 70
    32
  0
VERTEX
  8
T48SSILL
 62
8
 10
852.071
 20
-7041.369
 30
388.871
 70
    32
  0
VERTEX
  8
T48SSILL
 62
8
 10
856.429
 20
-7058.978
 30
388.916
 70
    32
  0
VERTEX
  8
T48SSILL
 62
8
 10
856.585
 20
-7066.261
 30
388.928
 70
    32
  0
VERTEX
  8
T48SSILL
 62
8
 10
847.210
 20
-7077.482
 30
388.899
 70
    32
  0
VERTEX
  8
T48SSILL
 62
8
 10
849.274
 20
-7087.754
 30
388.904
 70
    32
  0
VERTEX
  8
T48SSILL
 62
8
 10
863.682
 20
-7085.905
 30
388.966
 70
    32
  0
VERTEX
  8
T48SSILL
 62
8
 10
869.232
 20
-7088.152
 30
388.988
 70
    32
  0
VERTEX
  8
T48SSILL
 62
8
 10
869.324
 20
-7118.346
 30
388.953
 70
    32
  0
VERTEX
  8
T48SSILL
 62
8
 10
867.130
 20
-7121.757
 30
388.940
 70
    32
  0
VERTEX
  8
T48SSILL
 62
8
 10
858.908
 20
-7127.587
 30
388.902
 70
    32
  0
VERTEX
  8
T48SSILL
 62
8
 10
840.539
 20
-7131.079
 30
388.830
 70
    32
  0
VERTEX
  8
T48SSILL
 62
8
 10
840.798
 20
-7143.807
 30
388.815
 70
    32
  0
VERTEX
  8
T48SSILL
 62
8
 10
855.667
 20
-7139.624
 30
388.875
 70
    32
  0
VERTEX
  8
T48SSILL
 62
8
 10
863.443
 20
-7144.842
 30
388.896
 70
    32
  0
VERTEX
  8
T48SSILL
 62
8
 10
869.768
 20
-7151.810
 30
388.910
 70
    32
  0
VERTEX
  8
T48SSILL
 62
8
 10
868.972
 20
-7192.169
 30
388.840
 70
    32
  0
VERTEX
  8
T48SSILL
 62
8
 10
859.247
 20
-7196.584
 30
388.796
 70
    32
  0
VERTEX
  8
T48SSILL
 62
8
 10
857.582
 20
-7203.795
 30
388.769
 70
    32
  0
VERTEX
  8
T48SSILL
 62
8
 10
847.397
 20
-7210.544
 30
388.717
 70
    32
  0
VERTEX
  8
T48SSILL
 62
8
 10
843.012
 20
-7211.178
 30
388.701
 70
    32
  0
VERTEX
  8
T48SSILL
 62
8
 10
837.303
 20
-7210.044
 30
388.686
 70
    32
  0
VERTEX
  8
T48SSILL
 62
8
 10
824.578
 20
-7202.348
 30
388.670
 70
    32
  0
VERTEX
  8
T48SSILL
 62
8
 10
819.215
 20
-7186.915
 30
388.678
 70
    32
  0
VERTEX
  8
T48SSILL
 62
8
 10
812.462
 20
-7193.035
 30
388.645
 70
    32
  0
VERTEX
  8
T48SSILL
 62
8
 10
817.381
 20
-7207.189
 30
388.632
 70
    32
  0
VERTEX
  8
T48SSILL
 62
8
 10
811.792
 20
-7213.586
 30
388.596
 70
    32
  0
VERTEX
  8
T48SSILL
 62
8
 10
816.806
 20
-7227.058
 30
388.571
 70
    32
  0
VERTEX
  8
T48SSILL
 62
8
 10
816.607
 20
-7238.584
 30
388.535
 70
    32
  0
VERTEX
  8
T48SSILL
 62
8
 10
809.800
 20
-7239.377
 30
388.512
 70
    32
  0
VERTEX
  8
T48SSILL
 62
8
 10
801.709
 20
-7227.546
 30
388.522
 70
    32
  0
VERTEX
  8
T48SSILL
 62
8
 10
799.412
 20
-7225.954
 30
388.519
 70
    32
  0
VERTEX
  8
T48SSILL
 62
8
 10
793.207
 20
-7226.075
 30
388.499
 70
    32
  0
VERTEX
  8
T48SSILL
 62
8
 10
788.202
 20
-7215.025
 30
388.517
 70
    32
  0
VERTEX
  8
T48SSILL
 62
8
 10
779.855
 20
-7222.592
 30
388.468
 70
    32
  0
VERTEX
  8
T48SSILL
 62
8
 10
785.106
 20
-7236.342
 30
388.443
 70
    32
  0
VERTEX
  8
T48SSILL
 62
8
 10
779.657
 20
-7243.959
 30
388.403
 70
    32
  0
VERTEX
  8
T48SSILL
 62
8
 10
778.537
 20
-7257.942
 30
388.357
 70
    32
  0
VERTEX
  8
T48SSILL
 62
8
 10
769.167
 20
-7258.998
 30
388.325
 70
    32
  0
VERTEX
  8
T48SSILL
 62
8
 10
765.666
 20
-7261.401
 30
388.306
 70
    32
  0
VERTEX
  8
T48SSILL
 62
8
 10
756.145
 20
-7244.082
 30
388.329
 70
    32
  0
VERTEX
  8
T48SSILL
 62
8
 10
748.337
 20
-7251.160
 30
388.283
 70
    32
  0
VERTEX
  8
T48SSILL
 62
8
 10
754.724
 20
-7263.220
 30
388.267
 70
    32
  0
VERTEX
  8
T48SSILL
 62
8
 10
749.839
 20
-7274.033
 30
388.219
 70
    32
  0
VERTEX
  8
T48SSILL
 62
8
 10
758.067
 20
-7295.480
 30
388.180
 70
    32
  0
VERTEX
  8
T48SSILL
 62
8
 10
759.107
 20
-7301.880
 30
388.164
 70
    32
  0
VERTEX
  8
T48SSILL
 62
8
 10
766.618
 20
-7306.303
 30
388.174
 70
    32
  0
VERTEX
  8
T48SSILL
 62
8
 10
772.011
 20
-7303.477
 30
388.199
 70
    32
  0
VERTEX
  8
T48SSILL
 62
8
 10
787.629
 20
-7284.374
 30
388.306
 70
    32
  0
VERTEX
  8
T48SSILL
 62
8
 10
795.866
 20
-7285.934
 30
388.327
 70
    32
  0
VERTEX
  8
T48SSILL
 62
8
 10
800.249
 20
-7289.277
 30
388.331
 70
    32
  0
VERTEX
  8
T48SSILL
 62
8
 10
803.307
 20
-7289.526
 30
388.340
 70
    32
  0
VERTEX
  8
T48SSILL
 62
8
 10
806.432
 20
-7297.235
 30
388.326
 70
    32
  0
VERTEX
  8
T48SSILL
 62
8
 10
813.640
 20
-7307.297
 30
388.319
 70
    32
  0
VERTEX
  8
T48SSILL
 62
8
 10
836.205
 20
-7328.932
 30
388.324
 70
    32
  0
VERTEX
  8
T48SSILL
 62
8
 10
834.800
 20
-7334.340
 30
388.304
 70
    32
  0
VERTEX
  8
T48SSILL
 62
8
 10
821.463
 20
-7343.338
 30
388.235
 70
    32
  0
VERTEX
  8
T48SSILL
 62
8
 10
817.356
 20
-7342.514
 30
388.224
 70
    32
  0
VERTEX
  8
T48SSILL
 62
8
 10
807.862
 20
-7344.649
 30
388.188
 70
    32
  0
VERTEX
  8
T48SSILL
 62
8
 10
797.650
 20
-7353.878
 30
388.128
 70
    32
  0
VERTEX
  8
T48SSILL
 62
8
 10
800.049
 20
-7358.799
 30
388.121
 70
    32
  0
VERTEX
  8
T48SSILL
 62
8
 10
797.362
 20
-7377.408
 30
388.056
 70
    32
  0
VERTEX
  8
T48SSILL
 62
8
 10
815.759
 20
-7403.132
 30
388.085
 70
    32
  0
VERTEX
  8
T48SSILL
 62
8
 10
817.110
 20
-7407.069
 30
388.096
 70
    32
  0
SEQEND
  8
T48SSILL
  0
POLYLINE
  8
T48SSILL
 62
8
 66
     1
 70
     8
  0
VERTEX
  8
T48SSILL
 62
8
 10
1115.168
 20
-8067.168
 30
387.283
 70
    32
  0
VERTEX
  8
T48SSILL
 62
8
 10
1127.637
 20
-8058.680
 30
387.288
 70
    32
  0
VERTEX
  8
T48SSILL
 62
8
 10
1132.860
 20
-8058.349
 30
387.289
 70
    32
  0
VERTEX
  8
T48SSILL
 62
8
 10
1141.367
 20
-8060.856
 30
387.288
 70
    32
  0
VERTEX
  8
T48SSILL
 62
8
 10
1330.956
 20
-8324.327
 30
387.167
 70
    32
  0
VERTEX
  8
T48SSILL
 62
8
 10
1314.933
 20
-8335.421
 30
387.161
 70
    32
  0
VERTEX
  8
T48SSILL
 62
8
 10
1319.847
 20
-8342.421
 30
387.158
 70
    32
  0
VERTEX
  8
T48SSILL
 62
8
 10
1335.942
 20
-8331.275
 30
387.164
 70
    32
  0
VERTEX
  8
T48SSILL
 62
8
 10
1408.191
 20
-8431.445
 30
387.119
 70
    32
  0
VERTEX
  8
T48SSILL
 62
8
 10
1403.499
 20
-8434.885
 30
387.117
 70
    32
  0
VERTEX
  8
T48SSILL
 62
8
 10
1409.731
 20
-8443.980
 30
387.113
 70
    32
  0
VERTEX
  8
T48SSILL
 62
8
 10
1414.707
 20
-8440.331
 30
387.115
 70
    32
  0
VERTEX
  8
T48SSILL
 62
8
 10
1422.744
 20
-8452.146
 30
387.109
 70
    32
  0
VERTEX
  8
T48SSILL
 62
8
 10
1409.424
 20
-8461.848
 30
387.105
 70
    32
  0
VERTEX
  8
T48SSILL
 62
8
 10
1405.653
 20
-8459.025
 30
387.107
 70
    32
  0
VERTEX
  8
T48SSILL
 62
8
 10
1396.066
 20
-8464.411
 30
387.104
 70
    32
  0
VERTEX
  8
T48SSILL
 62
8
 10
1395.437
 20
-8468.664
 30
387.103
 70
    32
  0
VERTEX
  8
T48SSILL
 62
8
 10
1389.476
 20
-8474.261
 30
387.100
 70
    32
  0
VERTEX
  8
T48SSILL
 62
8
 10
1393.408
 20
-8481.529
 30
387.097
 70
    32
  0
VERTEX
  8
T48SSILL
 62
8
 10
1399.202
 20
-8488.216
 30
387.094
 70
    32
  0
VERTEX
  8
T48SSILL
 62
8
 10
1401.624
 20
-8486.906
 30
387.095
 70
    32
  0
VERTEX
  8
T48SSILL
 62
8
 10
1409.868
 20
-8480.860
 30
387.097
 70
    32
  0
VERTEX
  8
T48SSILL
 62
8
 10
1407.988
 20
-8476.892
 30
387.099
 70
    32
  0
VERTEX
  8
T48SSILL
 62
8
 10
1408.462
 20
-8472.424
 30
387.101
 70
    32
  0
VERTEX
  8
T48SSILL
 62
8
 10
1426.459
 20
-8458.810
 30
387.107
 70
    32
  0
VERTEX
  8
T48SSILL
 62
8
 10
1455.618
 20
-8497.017
 30
387.089
 70
    32
  0
VERTEX
  8
T48SSILL
 62
8
 10
1503.940
 20
-8567.083
 30
387.056
 70
    32
  0
VERTEX
  8
T48SSILL
 62
8
 10
1497.408
 20
-8571.889
 30
387.055
 70
    32
  0
VERTEX
  8
T48SSILL
 62
8
 10
1501.535
 20
-8577.932
 30
387.052
 70
    32
  0
VERTEX
  8
T48SSILL
 62
8
 10
1508.603
 20
-8573.719
 30
387.052
 70
    32
  0
VERTEX
  8
T48SSILL
 62
8
 10
1520.304
 20
-8589.841
 30
387.045
 70
    32
  0
VERTEX
  8
T48SSILL
 62
8
 10
1506.961
 20
-8599.218
 30
387.043
 70
    32
  0
VERTEX
  8
T48SSILL
 62
8
 10
1511.675
 20
-8605.925
 30
387.040
 70
    32
  0
VERTEX
  8
T48SSILL
 62
8
 10
1525.038
 20
-8596.425
 30
387.042
 70
    32
  0
VERTEX
  8
T48SSILL
 62
8
 10
1533.537
 20
-8607.793
 30
387.036
 70
    32
  0
VERTEX
  8
T48SSILL
 62
8
 10
1530.758
 20
-8610.118
 30
387.036
 70
    32
  0
VERTEX
  8
T48SSILL
 62
8
 10
1538.612
 20
-8615.001
 30
387.033
 70
    32
  0
VERTEX
  8
T48SSILL
 62
8
 10
1698.121
 20
-8836.538
 30
386.927
 70
    32
  0
VERTEX
  8
T48SSILL
 62
8
 10
1711.355
 20
-8848.300
 30
386.921
 70
    32
  0
VERTEX
  8
T48SSILL
 62
8
 10
1723.488
 20
-8851.736
 30
386.918
 70
    32
  0
VERTEX
  8
T48SSILL
 62
8
 10
1706.261
 20
-8864.014
 30
386.916
 70
    32
  0
VERTEX
  8
T48SSILL
 62
8
 10
1703.422
 20
-8860.519
 30
386.917
 70
    32
  0
VERTEX
  8
T48SSILL
 62
8
 10
1696.806
 20
-8865.058
 30
386.916
 70
    32
  0
VERTEX
  8
T48SSILL
 62
8
 10
1699.144
 20
-8868.914
 30
386.915
 70
    32
  0
VERTEX
  8
T48SSILL
 62
8
 10
1601.824
 20
-8938.456
 30
386.897
 70
    32
  0
VERTEX
  8
T48SSILL
 62
8
 10
1599.454
 20
-8934.406
 30
386.898
 70
    32
  0
VERTEX
  8
T48SSILL
 62
8
 10
1592.072
 20
-8939.389
 30
386.902
 70
    32
  0
VERTEX
  8
T48SSILL
 62
8
 10
1599.831
 20
-8949.878
 30
386.899
 70
    32
  0
VERTEX
  8
T48SSILL
 62
8
 10
1621.455
 20
-8934.655
 30
386.898
 70
    32
  0
VERTEX
  8
T48SSILL
 62
8
 10
1619.688
 20
-8946.239
 30
386.893
 70
    32
  0
VERTEX
  8
T48SSILL
 62
8
 10
1623.101
 20
-8959.744
 30
386.887
 70
    32
  0
VERTEX
  8
T48SSILL
 62
8
 10
1837.408
 20
-9387.360
 30
387.256
 70
    32
  0
VERTEX
  8
T48SSILL
 62
8
 10
1820.187
 20
-9399.388
 30
387.191
 70
    32
  0
VERTEX
  8
T48SSILL
 62
8
 10
1818.159
 20
-9395.956
 30
387.184
 70
    32
  0
VERTEX
  8
T48SSILL
 62
8
 10
1812.698
 20
-9399.547
 30
387.164
 70
    32
  0
VERTEX
  8
T48SSILL
 62
8
 10
1819.488
 20
-9409.013
 30
387.187
 70
    32
  0
VERTEX
  8
T48SSILL
 62
8
 10
1840.765
 20
-9393.857
 30
387.267
 70
    32
  0
VERTEX
  8
T48SSILL
 62
8
 10
1854.686
 20
-9421.593
 30
387.282
 70
    32
  0
VERTEX
  8
T48SSILL
 62
8
 10
1854.665
 20
-9421.881
 30
387.270
 70
    32
  0
VERTEX
  8
T48SSILL
 62
8
 10
1854.133
 20
-9428.707
 30
387.270
 70
    32
  0
VERTEX
  8
T48SSILL
 62
8
 10
1854.372
 20
-9431.227
 30
387.270
 70
    32
  0
VERTEX
  8
T48SSILL
 62
8
 10
1859.790
 20
-9438.776
 30
387.270
 70
    32
  0
VERTEX
  8
T48SSILL
 62
8
 10
1863.906
 20
-9442.325
 30
387.270
 70
    32
  0
VERTEX
  8
T48SSILL
 62
8
 10
1865.368
 20
-9442.876
 30
387.293
 70
    32
  0
VERTEX
  8
T48SSILL
 62
8
 10
1879.642
 20
-9471.812
 30
387.309
 70
    32
  0
VERTEX
  8
T48SSILL
 62
8
 10
1880.106
 20
-9472.584
 30
0.000
 70
    32
  0
VERTEX
  8
T48SSILL
 62
8
 10
1877.332
 20
-9476.645
 30
0.000
 70
    32
  0
VERTEX
  8
T48SSILL
 62
8
 10
1880.307
 20
-9480.790
 30
0.000
 70
    32
  0
VERTEX
  8
T48SSILL
 62
8
 10
1885.516
 20
-9489.610
 30
0.000
 70
    32
  0
VERTEX
  8
T48SSILL
 62
8
 10
1889.189
 20
-9490.995
 30
0.000
 70
    32
  0
VERTEX
  8
T48SSILL
 62
8
 10
1890.156
 20
-9492.925
 30
387.320
 70
    32
  0
VERTEX
  8
T48SSILL
 62
8
 10
2063.772
 20
-9838.181
 30
387.510
 70
    32
  0
VERTEX
  8
T48SSILL
 62
8
 10
2047.563
 20
-9849.557
 30
387.511
 70
    32
  0
VERTEX
  8
T48SSILL
 62
8
 10
2045.689
 20
-9846.786
 30
387.512
 70
    32
  0
VERTEX
  8
T48SSILL
 62
8
 10
2039.083
 20
-9851.619
 30
387.512
 70
    32
  0
VERTEX
  8
T48SSILL
 62
8
 10
2045.616
 20
-9860.905
 30
387.511
 70
    32
  0
VERTEX
  8
T48SSILL
 62
8
 10
2067.480
 20
-9845.484
 30
387.509
 70
    32
  0
VERTEX
  8
T48SSILL
 62
8
 10
2284.216
 20
-10275.293
 30
387.483
 70
    32
  0
VERTEX
  8
T48SSILL
 62
8
 10
2265.901
 20
-10288.422
 30
387.481
 70
    32
  0
VERTEX
  8
T48SSILL
 62
8
 10
2263.932
 20
-10285.826
 30
387.481
 70
    32
  0
VERTEX
  8
T48SSILL
 62
8
 10
2258.137
 20
-10289.980
 30
387.480
 70
    32
  0
VERTEX
  8
T48SSILL
 62
8
 10
2264.752
 20
-10298.452
 30
387.480
 70
    32
  0
VERTEX
  8
T48SSILL
 62
8
 10
2287.348
 20
-10281.928
 30
387.483
 70
    32
  0
VERTEX
  8
T48SSILL
 62
8
 10
2302.523
 20
-10311.557
 30
387.481
 70
    32
  0
VERTEX
  8
T48SSILL
 62
8
 10
2309.291
 20
-10308.004
 30
387.482
 70
    32
  0
VERTEX
  8
T48SSILL
 62
8
 10
1658.232
 20
-9010.263
 30
386.864
 70
    32
  0
VERTEX
  8
T48SSILL
 62
8
 10
1631.554
 20
-8959.420
 30
386.887
 70
    32
  0
VERTEX
  8
T48SSILL
 62
8
 10
1627.178
 20
-8946.390
 30
386.893
 70
    32
  0
VERTEX
  8
T48SSILL
 62
8
 10
1628.432
 20
-8937.564
 30
386.896
 70
    32
  0
VERTEX
  8
T48SSILL
 62
8
 10
1632.635
 20
-8928.461
 30
386.899
 70
    32
  0
VERTEX
  8
T48SSILL
 62
8
 10
1638.673
 20
-8922.817
 30
386.901
 70
    32
  0
VERTEX
  8
T48SSILL
 62
8
 10
2137.648
 20
-8563.170
 30
386.981
 70
    32
  0
VERTEX
  8
T48SSILL
 62
8
 10
2531.275
 20
-8282.657
 30
387.043
 70
    32
  0
VERTEX
  8
T48SSILL
 62
8
 10
3385.083
 20
-7669.436
 30
386.303
 70
    32
  0
VERTEX
  8
T48SSILL
 62
8
 10
3385.083
 20
-7669.436
 30
386.303
 70
    32
  0
VERTEX
  8
T48SSILL
 62
8
 10
3390.321
 20
-7668.633
 30
387.057
 70
    32
  0
VERTEX
  8
T48SSILL
 62
8
 10
3405.181
 20
-7692.838
 30
387.057
 70
    32
  0
VERTEX
  8
T48SSILL
 62
8
 10
3406.861
 20
-7692.620
 30
387.057
 70
    32
  0
VERTEX
  8
T48SSILL
 62
8
 10
3413.920
 20
-7699.759
 30
387.057
 70
    32
  0
VERTEX
  8
T48SSILL
 62
8
 10
3419.851
 20
-7695.116
 30
387.057
 70
    32
  0
VERTEX
  8
T48SSILL
 62
8
 10
3408.647
 20
-7678.594
 30
387.057
 70
    32
  0
VERTEX
  8
T48SSILL
 62
8
 10
3398.876
 20
-7662.754
 30
387.057
 70
    32
  0
VERTEX
  8
T48SSILL
 62
8
 10
3399.039
 20
-7659.412
 30
386.291
 70
    32
  0
VERTEX
  8
T48SSILL
 62
8
 10
3533.265
 20
-7563.008
 30
386.175
 70
    32
  0
VERTEX
  8
T48SSILL
 62
8
 10
3535.426
 20
-7565.683
 30
386.187
 70
    32
  0
VERTEX
  8
T48SSILL
 62
8
 10
3507.806
 20
-7854.363
 30
386.731
 70
    32
  0
VERTEX
  8
T48SSILL
 62
8
 10
3514.063
 20
-7861.027
 30
386.750
 70
    32
  0
VERTEX
  8
T48SSILL
 62
8
 10
3591.163
 20
-7970.295
 30
387.047
 70
    32
  0
VERTEX
  8
T48SSILL
 62
8
 10
3585.467
 20
-7974.479
 30
387.047
 70
    32
  0
VERTEX
  8
T48SSILL
 62
8
 10
3597.822
 20
-7990.838
 30
387.090
 70
    32
  0
VERTEX
  8
T48SSILL
 62
8
 10
3596.232
 20
-7992.410
 30
387.091
 70
    32
  0
VERTEX
  8
T48SSILL
 62
8
 10
3597.282
 20
-7996.003
 30
387.098
 70
    32
  0
VERTEX
  8
T48SSILL
 62
8
 10
3595.425
 20
-7998.418
 30
387.100
 70
    32
  0
VERTEX
  8
T48SSILL
 62
8
 10
3601.574
 20
-8008.682
 30
387.125
 70
    32
  0
VERTEX
  8
T48SSILL
 62
8
 10
3603.927
 20
-8010.908
 30
387.131
 70
    32
  0
VERTEX
  8
T48SSILL
 62
8
 10
3610.264
 20
-8012.783
 30
387.142
 70
    32
  0
VERTEX
  8
T48SSILL
 62
8
 10
3629.862
 20
-8033.952
 30
387.201
 70
    32
  0
VERTEX
  8
T48SSILL
 62
8
 10
3635.520
 20
-8033.054
 30
387.186
 70
    32
  0
VERTEX
  8
T48SSILL
 62
8
 10
3669.176
 20
-8078.587
 30
387.264
 70
    32
  0
VERTEX
  8
T48SSILL
 62
8
 10
3665.215
 20
-8085.357
 30
387.315
 70
    32
  0
VERTEX
  8
T48SSILL
 62
8
 10
3665.326
 20
-8094.759
 30
387.347
 70
    32
  0
VERTEX
  8
T48SSILL
 62
8
 10
3671.060
 20
-8113.196
 30
387.385
 70
    32
  0
VERTEX
  8
T48SSILL
 62
8
 10
3670.150
 20
-8115.267
 30
387.388
 70
    32
  0
VERTEX
  8
T48SSILL
 62
8
 10
3652.300
 20
-8127.881
 30
387.388
 70
    32
  0
VERTEX
  8
T48SSILL
 62
8
 10
3657.628
 20
-8134.839
 30
387.407
 70
    32
  0
VERTEX
  8
T48SSILL
 62
8
 10
3671.105
 20
-8124.934
 30
387.406
 70
    32
  0
VERTEX
  8
T48SSILL
 62
8
 10
3675.886
 20
-8127.491
 30
387.416
 70
    32
  0
VERTEX
  8
T48SSILL
 62
8
 10
3705.827
 20
-8174.298
 30
387.531
 70
    32
  0
VERTEX
  8
T48SSILL
 62
8
 10
3710.467
 20
-8184.695
 30
387.554
 70
    32
  0
VERTEX
  8
T48SSILL
 62
8
 10
3710.077
 20
-8191.732
 30
387.566
 70
    32
  0
VERTEX
  8
T48SSILL
 62
8
 10
3721.064
 20
-8202.469
 30
387.597
 70
    32
  0
VERTEX
  8
T48SSILL
 62
8
 10
3725.030
 20
-8211.170
 30
387.617
 70
    32
  0
VERTEX
  8
T48SSILL
 62
8
 10
3750.546
 20
-8250.153
 30
387.713
 70
    32
  0
VERTEX
  8
T48SSILL
 62
8
 10
3769.580
 20
-8275.267
 30
387.779
 70
    32
  0
VERTEX
  8
T48SSILL
 62
8
 10
3772.003
 20
-8280.609
 30
387.790
 70
    32
  0
VERTEX
  8
T48SSILL
 62
8
 10
3782.705
 20
-8292.314
 30
387.782
 70
    32
  0
VERTEX
  8
T48SSILL
 62
8
 10
3785.924
 20
-8302.098
 30
387.777
 70
    32
  0
VERTEX
  8
T48SSILL
 62
8
 10
3807.055
 20
-8326.794
 30
387.761
 70
    32
  0
VERTEX
  8
T48SSILL
 62
8
 10
3808.915
 20
-8332.868
 30
387.758
 70
    32
  0
VERTEX
  8
T48SSILL
 62
8
 10
3806.578
 20
-8345.991
 30
387.754
 70
    32
  0
VERTEX
  8
T48SSILL
 62
8
 10
3807.800
 20
-8352.087
 30
387.751
 70
    32
  0
VERTEX
  8
T48SSILL
 62
8
 10
3818.130
 20
-8376.920
 30
387.739
 70
    32
  0
VERTEX
  8
T48SSILL
 62
8
 10
3823.831
 20
-8404.862
 30
387.726
 70
    32
  0
VERTEX
  8
T48SSILL
 62
8
 10
3824.456
 20
-8424.683
 30
387.718
 70
    32
  0
VERTEX
  8
T48SSILL
 62
8
 10
3828.117
 20
-8437.962
 30
387.712
 70
    32
  0
VERTEX
  8
T48SSILL
 62
8
 10
3827.114
 20
-8449.908
 30
387.708
 70
    32
  0
VERTEX
  8
T48SSILL
 62
8
 10
3829.636
 20
-8464.333
 30
387.702
 70
    32
  0
VERTEX
  8
T48SSILL
 62
8
 10
3836.905
 20
-8469.897
 30
387.697
 70
    32
  0
VERTEX
  8
T48SSILL
 62
8
 10
3843.579
 20
-8472.510
 30
387.694
 70
    32
  0
VERTEX
  8
T48SSILL
 62
8
 10
3848.624
 20
-8470.736
 30
387.693
 70
    32
  0
VERTEX
  8
T48SSILL
 62
8
 10
3869.205
 20
-8452.672
 30
387.693
 70
    32
  0
VERTEX
  8
T48SSILL
 62
8
 10
3869.816
 20
-8443.515
 30
387.697
 70
    32
  0
VERTEX
  8
T48SSILL
 62
8
 10
3859.735
 20
-8388.861
 30
387.721
 70
    32
  0
VERTEX
  8
T48SSILL
 62
8
 10
3847.169
 20
-8342.423
 30
387.742
 70
    32
  0
VERTEX
  8
T48SSILL
 62
8
 10
3856.116
 20
-8321.061
 30
387.747
 70
    32
  0
VERTEX
  8
T48SSILL
 62
8
 10
3907.720
 20
-8374.202
 30
387.710
 70
    32
  0
VERTEX
  8
T48SSILL
 62
8
 10
3913.430
 20
-8408.677
 30
387.696
 70
    32
  0
VERTEX
  8
T48SSILL
 62
8
 10
3922.106
 20
-8406.799
 30
387.693
 70
    32
  0
VERTEX
  8
T48SSILL
 62
8
 10
3921.217
 20
-8398.284
 30
387.697
 70
    32
  0
VERTEX
  8
T48SSILL
 62
8
 10
3923.599
 20
-8396.899
 30
387.697
 70
    32
  0
VERTEX
  8
T48SSILL
 62
8
 10
3930.019
 20
-8397.188
 30
387.695
 70
    32
  0
VERTEX
  8
T48SSILL
 62
8
 10
3954.379
 20
-8425.013
 30
387.676
 70
    32
  0
VERTEX
  8
T48SSILL
 62
8
 10
3954.186
 20
-8432.780
 30
387.673
 70
    32
  0
VERTEX
  8
T48SSILL
 62
8
 10
3958.091
 20
-8434.877
 30
387.671
 70
    32
  0
VERTEX
  8
T48SSILL
 62
8
 10
3961.691
 20
-8441.552
 30
387.667
 70
    32
  0
VERTEX
  8
T48SSILL
 62
8
 10
4007.967
 20
-8573.092
 30
387.603
 70
    32
  0
VERTEX
  8
T48SSILL
 62
8
 10
4016.138
 20
-8569.600
 30
387.601
 70
    32
  0
VERTEX
  8
T48SSILL
 62
8
 10
3962.699
 20
-8424.154
 30
387.674
 70
    32
  0
VERTEX
  8
T48SSILL
 62
8
 10
3968.423
 20
-8350.401
 30
387.700
 70
    32
  0
VERTEX
  8
T48SSILL
 62
8
 10
3995.634
 20
-8351.112
 30
387.691
 70
    32
  0
VERTEX
  8
T48SSILL
 62
8
 10
3995.292
 20
-8340.024
 30
387.695
 70
    32
  0
VERTEX
  8
T48SSILL
 62
8
 10
3980.065
 20
-8339.308
 30
387.700
 70
    32
  0
VERTEX
  8
T48SSILL
 62
8
 10
3970.180
 20
-8329.195
 30
387.707
 70
    32
  0
VERTEX
  8
T48SSILL
 62
8
 10
3979.155
 20
-8211.148
 30
387.381
 70
    32
  0
VERTEX
  8
T48SSILL
 62
8
 10
3984.821
 20
-8210.236
 30
387.372
 70
    32
  0
VERTEX
  8
T48SSILL
 62
8
 10
3988.714
 20
-8212.014
 30
387.373
 70
    32
  0
VERTEX
  8
T48SSILL
 62
8
 10
4001.079
 20
-8222.089
 30
387.391
 70
    32
  0
VERTEX
  8
T48SSILL
 62
8
 10
4011.306
 20
-8216.153
 30
387.362
 70
    32
  0
VERTEX
  8
T48SSILL
 62
8
 10
4063.502
 20
-8288.158
 30
387.524
 70
    32
  0
VERTEX
  8
T48SSILL
 62
8
 10
4063.370
 20
-8295.555
 30
387.547
 70
    32
  0
VERTEX
  8
T48SSILL
 62
8
 10
4061.248
 20
-8298.061
 30
387.556
 70
    32
  0
VERTEX
  8
T48SSILL
 62
8
 10
4067.082
 20
-8301.932
 30
387.562
 70
    32
  0
VERTEX
  8
T48SSILL
 62
8
 10
4072.956
 20
-8302.069
 30
387.556
 70
    32
  0
VERTEX
  8
T48SSILL
 62
8
 10
4093.117
 20
-8329.206
 30
387.616
 70
    32
  0
VERTEX
  8
T48SSILL
 62
8
 10
4099.205
 20
-8324.940
 30
387.602
 70
    32
  0
VERTEX
  8
T48SSILL
 62
8
 10
4081.168
 20
-8299.544
 30
387.540
 70
    32
  0
VERTEX
  8
T48SSILL
 62
8
 10
4080.635
 20
-8293.497
 30
387.523
 70
    32
  0
VERTEX
  8
T48SSILL
 62
8
 10
4084.277
 20
-8290.225
 30
387.509
 70
    32
  0
VERTEX
  8
T48SSILL
 62
8
 10
4078.369
 20
-8282.158
 30
387.491
 70
    32
  0
VERTEX
  8
T48SSILL
 62
8
 10
4067.409
 20
-8280.555
 30
387.498
 70
    32
  0
VERTEX
  8
T48SSILL
 62
8
 10
4011.445
 20
-8204.066
 30
387.326
 70
    32
  0
VERTEX
  8
T48SSILL
 62
8
 10
4011.952
 20
-8201.740
 30
387.319
 70
    32
  0
VERTEX
  8
T48SSILL
 62
8
 10
4007.674
 20
-8191.846
 30
387.293
 70
    32
  0
VERTEX
  8
T48SSILL
 62
8
 10
4002.597
 20
-8186.451
 30
387.283
 70
    32
  0
VERTEX
  8
T48SSILL
 62
8
 10
3998.476
 20
-8184.509
 30
387.281
 70
    32
  0
VERTEX
  8
T48SSILL
 62
8
 10
3996.543
 20
-8177.725
 30
387.263
 70
    32
  0
VERTEX
  8
T48SSILL
 62
8
 10
4009.587
 20
-8099.146
 30
387.015
 70
    32
  0
VERTEX
  8
T48SSILL
 62
8
 10
4009.636
 20
-8091.482
 30
386.983
 70
    32
  0
VERTEX
  8
T48SSILL
 62
8
 10
4001.450
 20
-8075.244
 30
386.895
 70
    32
  0
VERTEX
  8
T48SSILL
 62
8
 10
3927.403
 20
-7976.181
 30
386.611
 70
    32
  0
VERTEX
  8
T48SSILL
 62
8
 10
3922.456
 20
-7965.926
 30
386.619
 70
    32
  0
VERTEX
  8
T48SSILL
 62
8
 10
3921.824
 20
-7957.907
 30
386.641
 70
    32
  0
VERTEX
  8
T48SSILL
 62
8
 10
3931.649
 20
-7955.548
 30
386.694
 70
    32
  0
VERTEX
  8
T48SSILL
 62
8
 10
3940.579
 20
-7950.571
 30
386.751
 70
    32
  0
VERTEX
  8
T48SSILL
 62
8
 10
3945.402
 20
-7945.926
 30
386.757
 70
    32
  0
VERTEX
  8
T48SSILL
 62
8
 10
3968.431
 20
-7955.191
 30
386.669
 70
    32
  0
VERTEX
  8
T48SSILL
 62
8
 10
3973.861
 20
-7951.850
 30
386.654
 70
    32
  0
VERTEX
  8
T48SSILL
 62
8
 10
3955.856
 20
-7920.308
 30
386.749
 70
    32
  0
VERTEX
  8
T48SSILL
 62
8
 10
4065.184
 20
-7842.282
 30
386.484
 70
    32
  0
VERTEX
  8
T48SSILL
 62
8
 10
4073.966
 20
-7850.317
 30
386.499
 70
    32
  0
VERTEX
  8
T48SSILL
 62
8
 10
4074.232
 20
-7859.404
 30
386.509
 70
    32
  0
VERTEX
  8
T48SSILL
 62
8
 10
4090.345
 20
-7863.098
 30
386.525
 70
    32
  0
VERTEX
  8
T48SSILL
 62
8
 10
4100.862
 20
-7860.592
 30
386.531
 70
    32
  0
VERTEX
  8
T48SSILL
 62
8
 10
4094.887
 20
-8003.920
 30
386.813
 70
    32
  0
VERTEX
  8
T48SSILL
 62
8
 10
4090.210
 20
-8013.868
 30
386.844
 70
    32
  0
VERTEX
  8
T48SSILL
 62
8
 10
4089.261
 20
-8023.837
 30
386.884
 70
    32
  0
VERTEX
  8
T48SSILL
 62
8
 10
4090.629
 20
-8026.774
 30
386.900
 70
    32
  0
VERTEX
  8
T48SSILL
 62
8
 10
4099.948
 20
-8029.834
 30
386.934
 70
    32
  0
VERTEX
  8
T48SSILL
 62
8
 10
4107.288
 20
-8038.588
 30
386.989
 70
    32
  0
VERTEX
  8
T48SSILL
 62
8
 10
4110.322
 20
-8045.774
 30
387.019
 70
    32
  0
VERTEX
  8
T48SSILL
 62
8
 10
4112.985
 20
-8046.133
 30
387.018
 70
    32
  0
VERTEX
  8
T48SSILL
 62
8
 10
4118.112
 20
-8043.721
 30
387.015
 70
    32
  0
VERTEX
  8
T48SSILL
 62
8
 10
4109.910
 20
-8004.912
 30
386.852
 70
    32
  0
VERTEX
  8
T48SSILL
 62
8
 10
4102.770
 20
-7998.087
 30
386.807
 70
    32
  0
VERTEX
  8
T48SSILL
 62
8
 10
4103.943
 20
-7957.602
 30
386.639
 70
    32
  0
VERTEX
  8
T48SSILL
 62
8
 10
4110.901
 20
-7964.778
 30
386.685
 70
    32
  0
VERTEX
  8
T48SSILL
 62
8
 10
4121.587
 20
-7970.774
 30
386.736
 70
    32
  0
VERTEX
  8
T48SSILL
 62
8
 10
4256.094
 20
-7978.133
 30
386.954
 70
    32
  0
VERTEX
  8
T48SSILL
 62
8
 10
4276.246
 20
-7991.450
 30
386.950
 70
    32
  0
VERTEX
  8
T48SSILL
 62
8
 10
4287.065
 20
-7993.419
 30
386.947
 70
    32
  0
VERTEX
  8
T48SSILL
 62
8
 10
4294.435
 20
-7979.661
 30
386.941
 70
    32
  0
VERTEX
  8
T48SSILL
 62
8
 10
4313.959
 20
-7980.987
 30
386.935
 70
    32
  0
VERTEX
  8
T48SSILL
 62
8
 10
4313.633
 20
-7973.472
 30
386.934
 70
    32
  0
VERTEX
  8
T48SSILL
 62
8
 10
4126.269
 20
-7963.990
 30
386.718
 70
    32
  0
VERTEX
  8
T48SSILL
 62
8
 10
4115.835
 20
-7958.793
 30
386.671
 70
    32
  0
VERTEX
  8
T48SSILL
 62
8
 10
4107.795
 20
-7948.472
 30
386.631
 70
    32
  0
VERTEX
  8
T48SSILL
 62
8
 10
4104.891
 20
-7939.663
 30
386.620
 70
    32
  0
VERTEX
  8
T48SSILL
 62
8
 10
4108.211
 20
-7857.330
 30
386.533
 70
    32
  0
VERTEX
  8
T48SSILL
 62
8
 10
4111.103
 20
-7855.449
 30
386.533
 70
    32
  0
VERTEX
  8
T48SSILL
 62
8
 10
4111.528
 20
-7850.772
 30
386.528
 70
    32
  0
VERTEX
  8
T48SSILL
 62
8
 10
4109.694
 20
-7809.305
 30
386.482
 70
    32
  0
VERTEX
  8
T48SSILL
 62
8
 10
4154.534
 20
-7777.835
 30
386.481
 70
    32
  0
VERTEX
  8
T48SSILL
 62
8
 10
4159.337
 20
-7783.847
 30
386.491
 70
    32
  0
VERTEX
  8
T48SSILL
 62
8
 10
4158.811
 20
-7792.745
 30
386.501
 70
    32
  0
VERTEX
  8
T48SSILL
 62
8
 10
4163.411
 20
-7799.231
 30
386.511
 70
    32
  0
VERTEX
  8
T48SSILL
 62
8
 10
4165.425
 20
-7799.297
 30
386.513
 70
    32
  0
VERTEX
  8
T48SSILL
 62
8
 10
4167.927
 20
-7796.278
 30
386.511
 70
    32
  0
VERTEX
  8
T48SSILL
 62
8
 10
4168.835
 20
-7790.161
 30
386.505
 70
    32
  0
VERTEX
  8
T48SSILL
 62
8
 10
4178.845
 20
-7788.459
 30
386.511
 70
    32
  0
VERTEX
  8
T48SSILL
 62
8
 10
4179.425
 20
-7786.401
 30
386.509
 70
    32
  0
VERTEX
  8
T48SSILL
 62
8
 10
4173.596
 20
-7763.338
 30
386.480
 70
    32
  0
VERTEX
  8
T48SSILL
 62
8
 10
4296.152
 20
-7675.048
 30
386.476
 70
    32
  0
VERTEX
  8
T48SSILL
 62
8
 10
4300.467
 20
-7680.528
 30
386.485
 70
    32
  0
VERTEX
  8
T48SSILL
 62
8
 10
4309.925
 20
-7674.275
 30
386.485
 70
    32
  0
VERTEX
  8
T48SSILL
 62
8
 10
4316.881
 20
-7666.713
 30
386.482
 70
    32
  0
VERTEX
  8
T48SSILL
 62
8
 10
4315.287
 20
-7661.211
 30
386.475
 70
    32
  0
VERTEX
  8
T48SSILL
 62
8
 10
4335.739
 20
-7645.922
 30
386.474
 70
    32
  0
VERTEX
  8
T48SSILL
 62
8
 10
4341.121
 20
-7639.502
 30
386.471
 70
    32
  0
VERTEX
  8
T48SSILL
 62
8
 10
4345.711
 20
-7624.924
 30
386.459
 70
    32
  0
VERTEX
  8
T48SSILL
 62
8
 10
4376.253
 20
-7668.036
 30
386.528
 70
    32
  0
VERTEX
  8
T48SSILL
 62
8
 10
4369.326
 20
-7672.629
 30
386.528
 70
    32
  0
VERTEX
  8
T48SSILL
 62
8
 10
4373.602
 20
-7678.368
 30
386.538
 70
    32
  0
VERTEX
  8
T48SSILL
 62
8
 10
4380.861
 20
-7674.080
 30
386.538
 70
    32
  0
VERTEX
  8
T48SSILL
 62
8
 10
4393.884
 20
-7691.263
 30
386.567
 70
    32
  0
VERTEX
  8
T48SSILL
 62
8
 10
4395.443
 20
-7701.377
 30
386.579
 70
    32
  0
VERTEX
  8
T48SSILL
 62
8
 10
4394.465
 20
-7706.345
 30
386.584
 70
    32
  0
VERTEX
  8
T48SSILL
 62
8
 10
4386.115
 20
-7719.505
 30
386.592
 70
    32
  0
VERTEX
  8
T48SSILL
 62
8
 10
4272.226
 20
-7800.680
 30
386.594
 70
    32
  0
VERTEX
  8
T48SSILL
 62
8
 10
4276.574
 20
-7806.366
 30
386.604
 70
    32
  0
VERTEX
  8
T48SSILL
 62
8
 10
4291.690
 20
-7795.608
 30
386.603
 70
    32
  0
VERTEX
  8
T48SSILL
 62
8
 10
4297.258
 20
-7802.373
 30
386.615
 70
    32
  0
VERTEX
  8
T48SSILL
 62
8
 10
4319.139
 20
-7787.249
 30
386.615
 70
    32
  0
VERTEX
  8
T48SSILL
 62
8
 10
4313.954
 20
-7779.658
 30
386.603
 70
    32
  0
VERTEX
  8
T48SSILL
 62
8
 10
4390.866
 20
-7724.244
 30
386.600
 70
    32
  0
VERTEX
  8
T48SSILL
 62
8
 10
4397.380
 20
-7716.675
 30
386.597
 70
    32
  0
VERTEX
  8
T48SSILL
 62
8
 10
4401.800
 20
-7702.765
 30
386.585
 70
    32
  0
VERTEX
  8
T48SSILL
 62
8
 10
4431.324
 20
-7744.324
 30
386.653
 70
    32
  0
VERTEX
  8
T48SSILL
 62
8
 10
4425.502
 20
-7748.334
 30
386.653
 70
    32
  0
VERTEX
  8
T48SSILL
 62
8
 10
4429.374
 20
-7755.020
 30
386.663
 70
    32
  0
VERTEX
  8
T48SSILL
 62
8
 10
4435.821
 20
-7750.667
 30
386.663
 70
    32
  0
VERTEX
  8
T48SSILL
 62
8
 10
4447.313
 20
-7766.342
 30
386.689
 70
    32
  0
VERTEX
  8
T48SSILL
 62
8
 10
4449.903
 20
-7777.126
 30
386.702
 70
    32
  0
VERTEX
  8
T48SSILL
 62
8
 10
4449.288
 20
-7783.796
 30
386.715
 70
    32
  0
VERTEX
  8
T48SSILL
 62
8
 10
4441.946
 20
-7795.787
 30
386.748
 70
    32
  0
VERTEX
  8
T48SSILL
 62
8
 10
4408.991
 20
-7819.718
 30
386.772
 70
    32
  0
VERTEX
  8
T48SSILL
 62
8
 10
4402.317
 20
-7814.738
 30
386.735
 70
    32
  0
VERTEX
  8
T48SSILL
 62
8
 10
4397.380
 20
-7807.187
 30
386.695
 70
    32
  0
VERTEX
  8
T48SSILL
 62
8
 10
4392.220
 20
-7810.606
 30
386.695
 70
    32
  0
VERTEX
  8
T48SSILL
 62
8
 10
4393.152
 20
-7815.498
 30
386.717
 70
    32
  0
VERTEX
  8
T48SSILL
 62
8
 10
4389.217
 20
-7823.160
 30
386.740
 70
    32
  0
VERTEX
  8
T48SSILL
 62
8
 10
4384.967
 20
-7826.028
 30
386.742
 70
    32
  0
VERTEX
  8
T48SSILL
 62
8
 10
4387.819
 20
-7833.564
 30
386.781
 70
    32
  0
VERTEX
  8
T48SSILL
 62
8
 10
4382.807
 20
-7838.841
 30
386.791
 70
    32
  0
VERTEX
  8
T48SSILL
 62
8
 10
4251.105
 20
-7933.825
 30
386.883
 70
    32
  0
VERTEX
  8
T48SSILL
 62
8
 10
4255.395
 20
-7938.680
 30
386.914
 70
    32
  0
VERTEX
  8
T48SSILL
 62
8
 10
4382.165
 20
-7847.278
 30
386.825
 70
    32
  0
VERTEX
  8
T48SSILL
 62
8
 10
4387.579
 20
-7851.426
 30
386.856
 70
    32
  0
VERTEX
  8
T48SSILL
 62
8
 10
4394.011
 20
-7867.500
 30
386.884
 70
    32
  0
VERTEX
  8
T48SSILL
 62
8
 10
4393.466
 20
-7893.663
 30
386.889
 70
    32
  0
VERTEX
  8
T48SSILL
 62
8
 10
4399.108
 20
-7896.772
 30
386.888
 70
    32
  0
VERTEX
  8
T48SSILL
 62
8
 10
4406.393
 20
-7909.060
 30
386.888
 70
    32
  0
VERTEX
  8
T48SSILL
 62
8
 10
4414.035
 20
-7903.947
 30
386.884
 70
    32
  0
VERTEX
  8
T48SSILL
 62
8
 10
4419.460
 20
-7902.847
 30
386.882
 70
    32
  0
VERTEX
  8
T48SSILL
 62
8
 10
4424.170
 20
-7893.094
 30
386.879
 70
    32
  0
VERTEX
  8
T48SSILL
 62
8
 10
4409.776
 20
-7857.035
 30
386.876
 70
    32
  0
VERTEX
  8
T48SSILL
 62
8
 10
4413.778
 20
-7846.158
 30
386.872
 70
    32
  0
VERTEX
  8
T48SSILL
 62
8
 10
4411.367
 20
-7839.830
 30
386.862
 70
    32
  0
VERTEX
  8
T48SSILL
 62
8
 10
4410.259
 20
-7826.877
 30
386.805
 70
    32
  0
VERTEX
  8
T48SSILL
 62
8
 10
4445.312
 20
-7802.077
 30
386.783
 70
    32
  0
VERTEX
  8
T48SSILL
 62
8
 10
4453.289
 20
-7792.464
 30
386.761
 70
    32
  0
VERTEX
  8
T48SSILL
 62
8
 10
4456.825
 20
-7779.742
 30
386.715
 70
    32
  0
VERTEX
  8
T48SSILL
 62
8
 10
4486.934
 20
-7821.204
 30
386.842
 70
    32
  0
VERTEX
  8
T48SSILL
 62
8
 10
4467.295
 20
-7835.356
 30
386.852
 70
    32
  0
VERTEX
  8
T48SSILL
 62
8
 10
4471.961
 20
-7841.030
 30
386.851
 70
    32
  0
VERTEX
  8
T48SSILL
 62
8
 10
4491.294
 20
-7827.208
 30
386.842
 70
    32
  0
VERTEX
  8
T48SSILL
 62
8
 10
4504.583
 20
-7845.509
 30
386.841
 70
    32
  0
VERTEX
  8
T48SSILL
 62
8
 10
4505.662
 20
-7854.662
 30
386.843
 70
    32
  0
VERTEX
  8
T48SSILL
 62
8
 10
4502.667
 20
-7864.370
 30
386.846
 70
    32
  0
VERTEX
  8
T48SSILL
 62
8
 10
4497.680
 20
-7871.485
 30
386.849
 70
    32
  0
VERTEX
  8
T48SSILL
 62
8
 10
4492.651
 20
-7864.109
 30
386.849
 70
    32
  0
VERTEX
  8
T48SSILL
 62
8
 10
4469.179
 20
-7879.298
 30
386.860
 70
    32
  0
VERTEX
  8
T48SSILL
 62
8
 10
4475.876
 20
-7888.520
 30
386.860
 70
    32
  0
VERTEX
  8
T48SSILL
 62
8
 10
4366.237
 20
-7966.826
 30
386.914
 70
    32
  0
VERTEX
  8
T48SSILL
 62
8
 10
4370.967
 20
-7972.890
 30
386.914
 70
    32
  0
VERTEX
  8
T48SSILL
 62
8
 10
4501.624
 20
-7878.120
 30
386.849
 70
    32
  0
VERTEX
  8
T48SSILL
 62
8
 10
4508.924
 20
-7869.980
 30
386.845
 70
    32
  0
VERTEX
  8
T48SSILL
 62
8
 10
4513.395
 20
-7858.545
 30
386.841
 70
    32
  0
VERTEX
  8
T48SSILL
 62
8
 10
4564.696
 20
-7929.491
 30
386.838
 70
    32
  0
VERTEX
  8
T48SSILL
 62
8
 10
4568.280
 20
-7939.990
 30
386.839
 70
    32
  0
VERTEX
  8
T48SSILL
 62
8
 10
4568.152
 20
-7945.979
 30
386.840
 70
    32
  0
VERTEX
  8
T48SSILL
 62
8
 10
4563.858
 20
-7956.303
 30
386.844
 70
    32
  0
VERTEX
  8
T48SSILL
 62
8
 10
4560.211
 20
-7960.152
 30
386.846
 70
    32
  0
VERTEX
  8
T48SSILL
 62
8
 10
4507.676
 20
-7997.865
 30
386.872
 70
    32
  0
VERTEX
  8
T48SSILL
 62
8
 10
4497.369
 20
-7995.851
 30
386.875
 70
    32
  0
VERTEX
  8
T48SSILL
 62
8
 10
4487.675
 20
-7990.771
 30
386.877
 70
    32
  0
VERTEX
  8
T48SSILL
 62
8
 10
4476.723
 20
-8002.000
 30
386.883
 70
    32
  0
VERTEX
  8
T48SSILL
 62
8
 10
4477.437
 20
-8019.824
 30
386.887
 70
    32
  0
VERTEX
  8
T48SSILL
 62
8
 10
4448.479
 20
-8040.088
 30
386.901
 70
    32
  0
VERTEX
  8
T48SSILL
 62
8
 10
4452.931
 20
-8045.917
 30
386.901
 70
    32
  0
VERTEX
  8
T48SSILL
 62
8
 10
4483.084
 20
-8024.894
 30
386.886
 70
    32
  0
VERTEX
  8
T48SSILL
 62
8
 10
4501.995
 20
-8039.659
 30
386.882
 70
    32
  0
VERTEX
  8
T48SSILL
 62
8
 10
4516.085
 20
-8058.033
 30
386.881
 70
    32
  0
VERTEX
  8
T48SSILL
 62
8
 10
4524.146
 20
-8061.604
 30
386.879
 70
    32
  0
VERTEX
  8
T48SSILL
 62
8
 10
4536.656
 20
-8064.280
 30
386.876
 70
    32
  0
VERTEX
  8
T48SSILL
 62
8
 10
4540.769
 20
-8069.146
 30
386.875
 70
    32
  0
VERTEX
  8
T48SSILL
 62
8
 10
4541.793
 20
-8072.817
 30
386.876
 70
    32
  0
VERTEX
  8
T48SSILL
 62
8
 10
4449.053
 20
-8139.180
 30
386.921
 70
    32
  0
VERTEX
  8
T48SSILL
 62
8
 10
4453.840
 20
-8145.298
 30
386.921
 70
    32
  0
VERTEX
  8
T48SSILL
 62
8
 10
4546.426
 20
-8078.615
 30
386.875
 70
    32
  0
VERTEX
  8
T48SSILL
 62
8
 10
4562.808
 20
-8097.833
 30
386.874
 70
    32
  0
VERTEX
  8
T48SSILL
 62
8
 10
4571.926
 20
-8088.746
 30
386.869
 70
    32
  0
VERTEX
  8
T48SSILL
 62
8
 10
4572.566
 20
-8080.066
 30
386.867
 70
    32
  0
VERTEX
  8
T48SSILL
 62
8
 10
4570.251
 20
-8067.536
 30
386.865
 70
    32
  0
VERTEX
  8
T48SSILL
 62
8
 10
4574.158
 20
-8072.114
 30
386.864
 70
    32
  0
VERTEX
  8
T48SSILL
 62
8
 10
4580.645
 20
-8073.017
 30
386.862
 70
    32
  0
VERTEX
  8
T48SSILL
 62
8
 10
4582.321
 20
-8070.201
 30
386.861
 70
    32
  0
VERTEX
  8
T48SSILL
 62
8
 10
4576.861
 20
-8062.074
 30
386.861
 70
    32
  0
VERTEX
  8
T48SSILL
 62
8
 10
4575.847
 20
-8057.425
 30
386.861
 70
    32
  0
VERTEX
  8
T48SSILL
 62
8
 10
4593.291
 20
-8044.861
 30
386.852
 70
    32
  0
VERTEX
  8
T48SSILL
 62
8
 10
4599.771
 20
-8037.544
 30
386.848
 70
    32
  0
VERTEX
  8
T48SSILL
 62
8
 10
4602.323
 20
-8032.157
 30
386.846
 70
    32
  0
VERTEX
  8
T48SSILL
 62
8
 10
4609.980
 20
-7990.452
 30
386.835
 70
    32
  0
VERTEX
  8
T48SSILL
 62
8
 10
4651.097
 20
-8047.769
 30
386.833
 70
    32
  0
VERTEX
  8
T48SSILL
 62
8
 10
4650.468
 20
-8049.624
 30
386.833
 70
    32
  0
VERTEX
  8
T48SSILL
 62
8
 10
4645.251
 20
-8049.440
 30
386.835
 70
    32
  0
VERTEX
  8
T48SSILL
 62
8
 10
4642.261
 20
-8047.672
 30
386.836
 70
    32
  0
VERTEX
  8
T48SSILL
 62
8
 10
4636.493
 20
-8039.872
 30
386.836
 70
    32
  0
VERTEX
  8
T48SSILL
 62
8
 10
4628.435
 20
-8034.785
 30
386.838
 70
    32
  0
VERTEX
  8
T48SSILL
 62
8
 10
4616.537
 20
-8039.356
 30
386.843
 70
    32
  0
VERTEX
  8
T48SSILL
 62
8
 10
4612.135
 20
-8042.598
 30
386.845
 70
    32
  0
VERTEX
  8
T48SSILL
 62
8
 10
4590.922
 20
-8063.430
 30
386.857
 70
    32
  0
VERTEX
  8
T48SSILL
 62
8
 10
4597.620
 20
-8072.841
 30
386.856
 70
    32
  0
VERTEX
  8
T48SSILL
 62
8
 10
4608.180
 20
-8070.953
 30
386.852
 70
    32
  0
VERTEX
  8
T48SSILL
 62
8
 10
4626.884
 20
-8090.542
 30
386.850
 70
    32
  0
VERTEX
  8
T48SSILL
 62
8
 10
4626.787
 20
-8105.005
 30
386.853
 70
    32
  0
VERTEX
  8
T48SSILL
 62
8
 10
4625.154
 20
-8106.817
 30
386.854
 70
    32
  0
VERTEX
  8
T48SSILL
 62
8
 10
4636.576
 20
-8122.714
 30
386.853
 70
    32
  0
VERTEX
  8
T48SSILL
 62
8
 10
4464.089
 20
-8246.986
 30
386.989
 70
    32
  0
VERTEX
  8
T48SSILL
 62
8
 10
4468.968
 20
-8252.929
 30
387.002
 70
    32
  0
VERTEX
  8
T48SSILL
 62
8
 10
4652.449
 20
-8120.993
 30
386.848
 70
    32
  0
VERTEX
  8
T48SSILL
 62
8
 10
4653.094
 20
-8126.002
 30
386.848
 70
    32
  0
VERTEX
  8
T48SSILL
 62
8
 10
4660.068
 20
-8141.276
 30
386.849
 70
    32
  0
VERTEX
  8
T48SSILL
 62
8
 10
4673.840
 20
-8167.622
 30
386.850
 70
    32
  0
VERTEX
  8
T48SSILL
 62
8
 10
4679.185
 20
-8164.792
 30
386.848
 70
    32
  0
VERTEX
  8
T48SSILL
 62
8
 10
4677.859
 20
-8155.021
 30
386.846
 70
    32
  0
VERTEX
  8
T48SSILL
 62
8
 10
4662.446
 20
-8129.411
 30
386.846
 70
    32
  0
VERTEX
  8
T48SSILL
 62
8
 10
4661.669
 20
-8116.761
 30
386.844
 70
    32
  0
VERTEX
  8
T48SSILL
 62
8
 10
4659.555
 20
-8114.942
 30
386.844
 70
    32
  0
VERTEX
  8
T48SSILL
 62
8
 10
4666.506
 20
-8069.270
 30
386.832
 70
    32
  0
VERTEX
  8
T48SSILL
 62
8
 10
4679.483
 20
-8087.199
 30
386.831
 70
    32
  0
VERTEX
  8
T48SSILL
 62
8
 10
4669.703
 20
-8093.835
 30
386.836
 70
    32
  0
VERTEX
  8
T48SSILL
 62
8
 10
4674.100
 20
-8100.013
 30
386.836
 70
    32
  0
VERTEX
  8
T48SSILL
 62
8
 10
4684.146
 20
-8093.296
 30
386.831
 70
    32
  0
VERTEX
  8
T48SSILL
 62
8
 10
4712.961
 20
-8133.936
 30
386.829
 70
    32
  0
VERTEX
  8
T48SSILL
 62
8
 10
4715.185
 20
-8145.881
 30
386.831
 70
    32
  0
VERTEX
  8
T48SSILL
 62
8
 10
4707.033
 20
-8189.778
 30
386.843
 70
    32
  0
VERTEX
  8
T48SSILL
 62
8
 10
4568.794
 20
-8288.269
 30
387.005
 70
    32
  0
VERTEX
  8
T48SSILL
 62
8
 10
4573.552
 20
-8293.433
 30
387.016
 70
    32
  0
VERTEX
  8
T48SSILL
 62
8
 10
4634.893
 20
-8248.834
 30
386.880
 70
    32
  0
VERTEX
  8
T48SSILL
 62
8
 10
4635.256
 20
-8252.549
 30
386.888
 70
    32
  0
VERTEX
  8
T48SSILL
 62
8
 10
4644.191
 20
-8254.307
 30
386.885
 70
    32
  0
VERTEX
  8
T48SSILL
 62
8
 10
4654.295
 20
-8243.870
 30
386.873
 70
    32
  0
VERTEX
  8
T48SSILL
 62
8
 10
4661.855
 20
-8240.654
 30
386.869
 70
    32
  0
VERTEX
  8
T48SSILL
 62
8
 10
4665.452
 20
-8235.064
 30
386.867
 70
    32
  0
VERTEX
  8
T48SSILL
 62
8
 10
4664.126
 20
-8227.579
 30
386.866
 70
    32
  0
VERTEX
  8
T48SSILL
 62
8
 10
4714.267
 20
-8191.123
 30
386.841
 70
    32
  0
VERTEX
  8
T48SSILL
 62
8
 10
4721.878
 20
-8146.313
 30
386.829
 70
    32
  0
VERTEX
  8
T48SSILL
 62
8
 10
4886.763
 20
-8377.234
 30
386.945
 70
    32
  0
VERTEX
  8
T48SSILL
 62
8
 10
4891.086
 20
-8384.981
 30
386.964
 70
    32
  0
VERTEX
  8
T48SSILL
 62
8
 10
4891.836
 20
-8389.533
 30
386.976
 70
    32
  0
VERTEX
  8
T48SSILL
 62
8
 10
4889.785
 20
-8402.465
 30
387.017
 70
    32
  0
VERTEX
  8
T48SSILL
 62
8
 10
4882.098
 20
-8413.563
 30
387.058
 70
    32
  0
VERTEX
  8
T48SSILL
 62
8
 10
4780.876
 20
-8486.359
 30
387.325
 70
    32
  0
VERTEX
  8
T48SSILL
 62
8
 10
4770.433
 20
-8485.675
 30
387.333
 70
    32
  0
VERTEX
  8
T48SSILL
 62
8
 10
4728.712
 20
-8427.813
 30
387.262
 70
    32
  0
VERTEX
  8
T48SSILL
 62
8
 10
4728.875
 20
-8416.333
 30
387.235
 70
    32
  0
VERTEX
  8
T48SSILL
 62
8
 10
4732.877
 20
-8413.593
 30
387.219
 70
    32
  0
VERTEX
  8
T48SSILL
 62
8
 10
4728.616
 20
-8406.236
 30
387.194
 70
    32
  0
VERTEX
  8
T48SSILL
 62
8
 10
4718.517
 20
-8413.640
 30
387.236
 70
    32
  0
VERTEX
  8
T48SSILL
 62
8
 10
4707.699
 20
-8398.287
 30
387.192
 70
    32
  0
VERTEX
  8
T48SSILL
 62
8
 10
4701.469
 20
-8402.612
 30
387.211
 70
    32
  0
VERTEX
  8
T48SSILL
 62
8
 10
4714.078
 20
-8419.721
 30
387.260
 70
    32
  0
VERTEX
  8
T48SSILL
 62
8
 10
4706.690
 20
-8424.546
 30
387.275
 70
    32
  0
VERTEX
  8
T48SSILL
 62
8
 10
4710.392
 20
-8429.596
 30
387.281
 70
    32
  0
VERTEX
  8
T48SSILL
 62
8
 10
4717.094
 20
-8424.718
 30
387.266
 70
    32
  0
VERTEX
  8
T48SSILL
 62
8
 10
4768.161
 20
-8495.408
 30
387.353
 70
    32
  0
VERTEX
  8
T48SSILL
 62
8
 10
4758.678
 20
-8502.157
 30
387.373
 70
    32
  0
VERTEX
  8
T48SSILL
 62
8
 10
4763.403
 20
-8508.643
 30
387.381
 70
    32
  0
VERTEX
  8
T48SSILL
 62
8
 10
4792.005
 20
-8487.854
 30
387.319
 70
    32
  0
VERTEX
  8
T48SSILL
 62
8
 10
4797.832
 20
-8496.802
 30
387.330
 70
    32
  0
VERTEX
  8
T48SSILL
 62
8
 10
4804.576
 20
-8491.679
 30
387.315
 70
    32
  0
VERTEX
  8
T48SSILL
 62
8
 10
4798.707
 20
-8482.976
 30
387.304
 70
    32
  0
VERTEX
  8
T48SSILL
 62
8
 10
4889.460
 20
-8418.280
 30
387.065
 70
    32
  0
VERTEX
  8
T48SSILL
 62
8
 10
4897.074
 20
-8407.234
 30
387.024
 70
    32
  0
VERTEX
  8
T48SSILL
 62
8
 10
4899.976
 20
-8394.887
 30
386.984
 70
    32
  0
VERTEX
  8
T48SSILL
 62
8
 10
4999.451
 20
-8533.291
 30
387.227
 70
    32
  0
VERTEX
  8
T48SSILL
 62
8
 10
5003.342
 20
-8541.344
 30
387.239
 70
    32
  0
VERTEX
  8
T48SSILL
 62
8
 10
5003.628
 20
-8553.912
 30
387.262
 70
    32
  0
VERTEX
  8
T48SSILL
 62
8
 10
4992.973
 20
-8568.746
 30
387.284
 70
    32
  0
VERTEX
  8
T48SSILL
 62
8
 10
4933.182
 20
-8611.406
 30
387.288
 70
    32
  0
VERTEX
  8
T48SSILL
 62
8
 10
4929.619
 20
-8609.288
 30
387.289
 70
    32
  0
VERTEX
  8
T48SSILL
 62
8
 10
4925.188
 20
-8617.204
 30
387.288
 70
    32
  0
VERTEX
  8
T48SSILL
 62
8
 10
4902.231
 20
-8633.001
 30
387.289
 70
    32
  0
VERTEX
  8
T48SSILL
 62
8
 10
4897.319
 20
-8628.380
 30
387.293
 70
    32
  0
VERTEX
  8
T48SSILL
 62
8
 10
4895.230
 20
-8615.256
 30
387.298
 70
    32
  0
VERTEX
  8
T48SSILL
 62
8
 10
4891.686
 20
-8613.774
 30
387.300
 70
    32
  0
VERTEX
  8
T48SSILL
 62
8
 10
4886.073
 20
-8605.431
 30
387.305
 70
    32
  0
VERTEX
  8
T48SSILL
 62
8
 10
4881.865
 20
-8608.642
 30
387.305
 70
    32
  0
VERTEX
  8
T48SSILL
 62
8
 10
4872.716
 20
-8611.907
 30
387.307
 70
    32
  0
VERTEX
  8
T48SSILL
 62
8
 10
4867.275
 20
-8617.186
 30
387.307
 70
    32
  0
VERTEX
  8
T48SSILL
 62
8
 10
4873.724
 20
-8640.086
 30
387.296
 70
    32
  0
VERTEX
  8
T48SSILL
 62
8
 10
4880.934
 20
-8649.457
 30
387.290
 70
    32
  0
VERTEX
  8
T48SSILL
 62
8
 10
4850.393
 20
-8670.868
 30
387.292
 70
    32
  0
VERTEX
  8
T48SSILL
 62
8
 10
4855.487
 20
-8676.658
 30
387.288
 70
    32
  0
VERTEX
  8
T48SSILL
 62
8
 10
4891.181
 20
-8650.930
 30
387.286
 70
    32
  0
VERTEX
  8
T48SSILL
 62
8
 10
4893.376
 20
-8656.294
 30
387.283
 70
    32
  0
VERTEX
  8
T48SSILL
 62
8
 10
4899.578
 20
-8661.512
 30
387.279
 70
    32
  0
VERTEX
  8
T48SSILL
 62
8
 10
4903.402
 20
-8667.341
 30
387.276
 70
    32
  0
VERTEX
  8
T48SSILL
 62
8
 10
4908.209
 20
-8667.708
 30
387.274
 70
    32
  0
VERTEX
  8
T48SSILL
 62
8
 10
4910.500
 20
-8664.237
 30
387.275
 70
    32
  0
VERTEX
  8
T48SSILL
 62
8
 10
4910.442
 20
-8650.317
 30
387.280
 70
    32
  0
VERTEX
  8
T48SSILL
 62
8
 10
4902.727
 20
-8642.821
 30
387.286
 70
    32
  0
VERTEX
  8
T48SSILL
 62
8
 10
4932.971
 20
-8621.297
 30
387.284
 70
    32
  0
VERTEX
  8
T48SSILL
 62
8
 10
4946.868
 20
-8628.506
 30
387.277
 70
    32
  0
VERTEX
  8
T48SSILL
 62
8
 10
4951.903
 20
-8621.135
 30
387.278
 70
    32
  0
VERTEX
  8
T48SSILL
 62
8
 10
4941.326
 20
-8614.485
 30
387.284
 70
    32
  0
VERTEX
  8
T48SSILL
 62
8
 10
5002.296
 20
-8571.201
 30
387.280
 70
    32
  0
VERTEX
  8
T48SSILL
 62
8
 10
5008.206
 20
-8562.017
 30
387.273
 70
    32
  0
VERTEX
  8
T48SSILL
 62
8
 10
5011.025
 20
-8550.162
 30
387.249
 70
    32
  0
VERTEX
  8
T48SSILL
 62
8
 10
5027.478
 20
-8572.977
 30
387.271
 70
    32
  0
VERTEX
  8
T48SSILL
 62
8
 10
5034.713
 20
-8567.936
 30
387.261
 70
    32
  0
VERTEX
  8
T48SSILL
 62
8
 10
4797.663
 20
-8238.048
 30
386.822
 70
    32
  0
VERTEX
  8
T48SSILL
 62
8
 10
4813.655
 20
-8236.948
 30
386.816
 70
    32
  0
VERTEX
  8
T48SSILL
 62
8
 10
4819.615
 20
-8234.222
 30
386.814
 70
    32
  0
VERTEX
  8
T48SSILL
 62
8
 10
4892.563
 20
-8181.765
 30
386.778
 70
    32
  0
VERTEX
  8
T48SSILL
 62
8
 10
4888.780
 20
-8176.448
 30
386.778
 70
    32
  0
VERTEX
  8
T48SSILL
 62
8
 10
4816.376
 20
-8228.302
 30
386.814
 70
    32
  0
VERTEX
  8
T48SSILL
 62
8
 10
4805.875
 20
-8231.339
 30
386.818
 70
    32
  0
VERTEX
  8
T48SSILL
 62
8
 10
4795.106
 20
-8228.829
 30
386.821
 70
    32
  0
VERTEX
  8
T48SSILL
 62
8
 10
4788.409
 20
-8225.046
 30
386.823
 70
    32
  0
VERTEX
  8
T48SSILL
 62
8
 10
4741.320
 20
-8159.641
 30
386.825
 70
    32
  0
VERTEX
  8
T48SSILL
 62
8
 10
4753.855
 20
-8159.918
 30
386.821
 70
    32
  0
VERTEX
  8
T48SSILL
 62
8
 10
4764.582
 20
-8157.046
 30
386.817
 70
    32
  0
VERTEX
  8
T48SSILL
 62
8
 10
4808.721
 20
-8125.849
 30
386.795
 70
    32
  0
VERTEX
  8
T48SSILL
 62
8
 10
4803.904
 20
-8119.537
 30
386.795
 70
    32
  0
VERTEX
  8
T48SSILL
 62
8
 10
4794.216
 20
-8126.757
 30
386.800
 70
    32
  0
VERTEX
  8
T48SSILL
 62
8
 10
4790.405
 20
-8125.357
 30
386.801
 70
    32
  0
VERTEX
  8
T48SSILL
 62
8
 10
4789.886
 20
-8117.176
 30
386.800
 70
    32
  0
VERTEX
  8
T48SSILL
 62
8
 10
4784.987
 20
-8099.343
 30
386.797
 70
    32
  0
VERTEX
  8
T48SSILL
 62
8
 10
4779.701
 20
-8091.308
 30
386.798
 70
    32
  0
VERTEX
  8
T48SSILL
 62
8
 10
4773.008
 20
-8073.236
 30
386.796
 70
    32
  0
VERTEX
  8
T48SSILL
 62
8
 10
4760.095
 20
-8054.179
 30
386.797
 70
    32
  0
VERTEX
  8
T48SSILL
 62
8
 10
4748.803
 20
-8052.150
 30
386.800
 70
    32
  0
VERTEX
  8
T48SSILL
 62
8
 10
4809.601
 20
-8008.016
 30
386.770
 70
    32
  0
VERTEX
  8
T48SSILL
 62
8
 10
4808.406
 20
-8023.368
 30
386.774
 70
    32
  0
VERTEX
  8
T48SSILL
 62
8
 10
4804.391
 20
-8039.321
 30
386.778
 70
    32
  0
VERTEX
  8
T48SSILL
 62
8
 10
4805.165
 20
-8042.233
 30
386.779
 70
    32
  0
VERTEX
  8
T48SSILL
 62
8
 10
4810.138
 20
-8047.244
 30
386.778
 70
    32
  0
VERTEX
  8
T48SSILL
 62
8
 10
4818.435
 20
-8050.538
 30
386.776
 70
    32
  0
VERTEX
  8
T48SSILL
 62
8
 10
4824.504
 20
-8032.150
 30
386.770
 70
    32
  0
VERTEX
  8
T48SSILL
 62
8
 10
4823.466
 20
-7998.148
 30
386.763
 70
    32
  0
VERTEX
  8
T48SSILL
 62
8
 10
4844.936
 20
-7982.544
 30
386.752
 70
    32
  0
VERTEX
  8
T48SSILL
 62
8
 10
4851.168
 20
-7982.329
 30
386.750
 70
    32
  0
VERTEX
  8
T48SSILL
 62
8
 10
4865.060
 20
-8004.585
 30
386.750
 70
    32
  0
VERTEX
  8
T48SSILL
 62
8
 10
4868.921
 20
-8018.071
 30
386.752
 70
    32
  0
VERTEX
  8
T48SSILL
 62
8
 10
4871.428
 20
-8020.832
 30
386.751
 70
    32
  0
VERTEX
  8
T48SSILL
 62
8
 10
4878.467
 20
-8022.208
 30
386.749
 70
    32
  0
VERTEX
  8
T48SSILL
 62
8
 10
4877.235
 20
-8011.504
 30
386.747
 70
    32
  0
VERTEX
  8
T48SSILL
 62
8
 10
4871.977
 20
-7999.554
 30
386.747
 70
    32
  0
VERTEX
  8
T48SSILL
 62
8
 10
4881.071
 20
-7998.493
 30
386.743
 70
    32
  0
VERTEX
  8
T48SSILL
 62
8
 10
4885.527
 20
-7993.807
 30
386.741
 70
    32
  0
VERTEX
  8
T48SSILL
 62
8
 10
4875.848
 20
-7966.063
 30
386.738
 70
    32
  0
VERTEX
  8
T48SSILL
 62
8
 10
4880.732
 20
-7956.959
 30
386.735
 70
    32
  0
VERTEX
  8
T48SSILL
 62
8
 10
4883.606
 20
-7954.914
 30
386.733
 70
    32
  0
VERTEX
  8
T48SSILL
 62
8
 10
4878.583
 20
-7949.073
 30
386.734
 70
    32
  0
VERTEX
  8
T48SSILL
 62
8
 10
4873.750
 20
-7951.863
 30
386.736
 70
    32
  0
VERTEX
  8
T48SSILL
 62
8
 10
4865.385
 20
-7940.717
 30
386.737
 70
    32
  0
VERTEX
  8
T48SSILL
 62
8
 10
4855.636
 20
-7947.548
 30
386.742
 70
    32
  0
VERTEX
  8
T48SSILL
 62
8
 10
4853.674
 20
-7961.823
 30
386.745
 70
    32
  0
VERTEX
  8
T48SSILL
 62
8
 10
4845.352
 20
-7972.940
 30
386.750
 70
    32
  0
VERTEX
  8
T48SSILL
 62
8
 10
4821.771
 20
-7988.315
 30
386.762
 70
    32
  0
VERTEX
  8
T48SSILL
 62
8
 10
4808.697
 20
-7967.208
 30
386.762
 70
    32
  0
VERTEX
  8
T48SSILL
 62
8
 10
4804.145
 20
-7950.319
 30
386.760
 70
    32
  0
VERTEX
  8
T48SSILL
 62
8
 10
4798.928
 20
-7938.122
 30
386.759
 70
    32
  0
VERTEX
  8
T48SSILL
 62
8
 10
4797.496
 20
-7936.111
 30
386.759
 70
    32
  0
VERTEX
  8
T48SSILL
 62
8
 10
4794.490
 20
-7937.817
 30
386.761
 70
    32
  0
VERTEX
  8
T48SSILL
 62
8
 10
4792.508
 20
-7940.202
 30
386.762
 70
    32
  0
VERTEX
  8
T48SSILL
 62
8
 10
4792.533
 20
-7949.058
 30
386.764
 70
    32
  0
VERTEX
  8
T48SSILL
 62
8
 10
4798.429
 20
-7995.512
 30
386.771
 70
    32
  0
VERTEX
  8
T48SSILL
 62
8
 10
4803.130
 20
-8003.638
 30
386.771
 70
    32
  0
VERTEX
  8
T48SSILL
 62
8
 10
4707.103
 20
-8071.872
 30
386.819
 70
    32
  0
VERTEX
  8
T48SSILL
 62
8
 10
4695.904
 20
-8075.296
 30
386.823
 70
    32
  0
VERTEX
  8
T48SSILL
 62
8
 10
4688.411
 20
-8075.109
 30
386.826
 70
    32
  0
VERTEX
  8
T48SSILL
 62
8
 10
4681.997
 20
-8073.397
 30
386.828
 70
    32
  0
VERTEX
  8
T48SSILL
 62
8
 10
4675.180
 20
-8068.075
 30
386.829
 70
    32
  0
VERTEX
  8
T48SSILL
 62
8
 10
4629.176
 20
-8003.738
 30
386.831
 70
    32
  0
VERTEX
  8
T48SSILL
 62
8
 10
4639.495
 20
-8005.160
 30
386.828
 70
    32
  0
VERTEX
  8
T48SSILL
 62
8
 10
4651.370
 20
-8002.229
 30
386.823
 70
    32
  0
VERTEX
  8
T48SSILL
 62
8
 10
4682.587
 20
-7980.852
 30
386.808
 70
    32
  0
VERTEX
  8
T48SSILL
 62
8
 10
4696.083
 20
-8001.035
 30
386.808
 70
    32
  0
VERTEX
  8
T48SSILL
 62
8
 10
4715.628
 20
-8013.748
 30
386.804
 70
    32
  0
VERTEX
  8
T48SSILL
 62
8
 10
4715.632
 20
-8023.485
 30
386.806
 70
    32
  0
VERTEX
  8
T48SSILL
 62
8
 10
4726.700
 20
-8024.591
 30
386.802
 70
    32
  0
VERTEX
  8
T48SSILL
 62
8
 10
4732.247
 20
-8017.938
 30
386.799
 70
    32
  0
VERTEX
  8
T48SSILL
 62
8
 10
4732.882
 20
-8005.905
 30
386.796
 70
    32
  0
VERTEX
  8
T48SSILL
 62
8
 10
4736.606
 20
-7992.433
 30
386.792
 70
    32
  0
VERTEX
  8
T48SSILL
 62
8
 10
4735.954
 20
-7978.287
 30
386.789
 70
    32
  0
VERTEX
  8
T48SSILL
 62
8
 10
4806.369
 20
-7908.584
 30
386.750
 70
    32
  0
VERTEX
  8
T48SSILL
 62
8
 10
4802.843
 20
-7895.718
 30
386.749
 70
    32
  0
VERTEX
  8
T48SSILL
 62
8
 10
4833.858
 20
-7873.761
 30
386.734
 70
    32
  0
VERTEX
  8
T48SSILL
 62
8
 10
4828.273
 20
-7867.129
 30
386.734
 70
    32
  0
VERTEX
  8
T48SSILL
 62
8
 10
4799.723
 20
-7887.536
 30
386.748
 70
    32
  0
VERTEX
  8
T48SSILL
 62
8
 10
4795.210
 20
-7882.868
 30
386.749
 70
    32
  0
VERTEX
  8
T48SSILL
 62
8
 10
4785.573
 20
-7883.774
 30
386.752
 70
    32
  0
VERTEX
  8
T48SSILL
 62
8
 10
4763.031
 20
-7861.072
 30
386.755
 70
    32
  0
VERTEX
  8
T48SSILL
 62
8
 10
4732.366
 20
-7883.221
 30
386.771
 70
    32
  0
VERTEX
  8
T48SSILL
 62
8
 10
4719.939
 20
-7903.321
 30
386.779
 70
    32
  0
VERTEX
  8
T48SSILL
 62
8
 10
4689.888
 20
-7919.946
 30
386.793
 70
    32
  0
VERTEX
  8
T48SSILL
 62
8
 10
4688.437
 20
-7946.952
 30
386.799
 70
    32
  0
VERTEX
  8
T48SSILL
 62
8
 10
4674.668
 20
-7960.756
 30
386.807
 70
    32
  0
VERTEX
  8
T48SSILL
 62
8
 10
4679.137
 20
-7973.727
 30
386.808
 70
    32
  0
VERTEX
  8
T48SSILL
 62
8
 10
4652.524
 20
-7992.749
 30
386.821
 70
    32
  0
VERTEX
  8
T48SSILL
 62
8
 10
4642.954
 20
-7996.638
 30
386.825
 70
    32
  0
VERTEX
  8
T48SSILL
 62
8
 10
4629.209
 20
-7996.030
 30
386.830
 70
    32
  0
VERTEX
  8
T48SSILL
 62
8
 10
4620.043
 20
-7991.515
 30
386.832
 70
    32
  0
VERTEX
  8
T48SSILL
 62
8
 10
4591.150
 20
-7951.151
 30
386.833
 70
    32
  0
VERTEX
  8
T48SSILL
 62
8
 10
4608.128
 20
-7950.700
 30
386.827
 70
    32
  0
VERTEX
  8
T48SSILL
 62
8
 10
4618.387
 20
-7945.492
 30
386.823
 70
    32
  0
VERTEX
  8
T48SSILL
 62
8
 10
4668.863
 20
-7909.436
 30
386.798
 70
    32
  0
VERTEX
  8
T48SSILL
 62
8
 10
4662.553
 20
-7902.098
 30
386.799
 70
    32
  0
VERTEX
  8
T48SSILL
 62
8
 10
4649.625
 20
-7911.770
 30
386.805
 70
    32
  0
VERTEX
  8
T48SSILL
 62
8
 10
4645.139
 20
-7905.653
 30
386.805
 70
    32
  0
VERTEX
  8
T48SSILL
 62
8
 10
4623.665
 20
-7920.646
 30
386.816
 70
    32
  0
VERTEX
  8
T48SSILL
 62
8
 10
4629.016
 20
-7928.310
 30
386.816
 70
    32
  0
VERTEX
  8
T48SSILL
 62
8
 10
4610.312
 20
-7941.262
 30
386.825
 70
    32
  0
VERTEX
  8
T48SSILL
 62
8
 10
4596.295
 20
-7942.536
 30
386.830
 70
    32
  0
VERTEX
  8
T48SSILL
 62
8
 10
4582.984
 20
-7939.310
 30
386.834
 70
    32
  0
VERTEX
  8
T48SSILL
 62
8
 10
4573.243
 20
-7926.314
 30
386.834
 70
    32
  0
VERTEX
  8
T48SSILL
 62
8
 10
4587.202
 20
-7929.081
 30
386.830
 70
    32
  0
VERTEX
  8
T48SSILL
 62
8
 10
4597.503
 20
-7926.222
 30
386.826
 70
    32
  0
VERTEX
  8
T48SSILL
 62
8
 10
4664.169
 20
-7878.738
 30
386.793
 70
    32
  0
VERTEX
  8
T48SSILL
 62
8
 10
4676.548
 20
-7904.104
 30
386.794
 70
    32
  0
VERTEX
  8
T48SSILL
 62
8
 10
4690.456
 20
-7897.178
 30
386.788
 70
    32
  0
VERTEX
  8
T48SSILL
 62
8
 10
4692.005
 20
-7894.784
 30
386.787
 70
    32
  0
VERTEX
  8
T48SSILL
 62
8
 10
4677.877
 20
-7876.353
 30
386.788
 70
    32
  0
VERTEX
  8
T48SSILL
 62
8
 10
4675.947
 20
-7870.198
 30
386.787
 70
    32
  0
VERTEX
  8
T48SSILL
 62
8
 10
4703.144
 20
-7850.479
 30
386.774
 70
    32
  0
VERTEX
  8
T48SSILL
 62
8
 10
4716.025
 20
-7849.456
 30
386.769
 70
    32
  0
VERTEX
  8
T48SSILL
 62
8
 10
4725.952
 20
-7852.483
 30
386.766
 70
    32
  0
VERTEX
  8
T48SSILL
 62
8
 10
4728.737
 20
-7851.377
 30
386.765
 70
    32
  0
VERTEX
  8
T48SSILL
 62
8
 10
4731.874
 20
-7844.507
 30
386.763
 70
    32
  0
VERTEX
  8
T48SSILL
 62
8
 10
4735.981
 20
-7843.437
 30
386.761
 70
    32
  0
VERTEX
  8
T48SSILL
 62
8
 10
4752.458
 20
-7845.179
 30
386.756
 70
    32
  0
VERTEX
  8
T48SSILL
 62
8
 10
4773.612
 20
-7834.745
 30
386.746
 70
    32
  0
VERTEX
  8
T48SSILL
 62
8
 10
4777.159
 20
-7830.288
 30
386.744
 70
    32
  0
VERTEX
  8
T48SSILL
 62
8
 10
4776.334
 20
-7821.791
 30
386.743
 70
    32
  0
VERTEX
  8
T48SSILL
 62
8
 10
4769.256
 20
-7812.098
 30
386.743
 70
    32
  0
VERTEX
  8
T48SSILL
 62
8
 10
4765.732
 20
-7808.647
 30
386.743
 70
    32
  0
VERTEX
  8
T48SSILL
 62
8
 10
4762.070
 20
-7807.754
 30
386.745
 70
    32
  0
VERTEX
  8
T48SSILL
 62
8
 10
4804.650
 20
-7776.881
 30
386.723
 70
    32
  0
VERTEX
  8
T48SSILL
 62
8
 10
4808.115
 20
-7777.347
 30
386.721
 70
    32
  0
VERTEX
  8
T48SSILL
 62
8
 10
4822.655
 20
-7773.757
 30
386.706
 70
    32
  0
VERTEX
  8
T48SSILL
 62
8
 10
4817.689
 20
-7766.894
 30
386.704
 70
    32
  0
VERTEX
  8
T48SSILL
 62
8
 10
4858.146
 20
-7737.607
 30
386.646
 70
    32
  0
VERTEX
  8
T48SSILL
 62
8
 10
4854.190
 20
-7731.866
 30
386.644
 70
    32
  0
VERTEX
  8
T48SSILL
 62
8
 10
4814.340
 20
-7760.271
 30
386.702
 70
    32
  0
VERTEX
  8
T48SSILL
 62
8
 10
4796.305
 20
-7732.410
 30
386.692
 70
    32
  0
VERTEX
  8
T48SSILL
 62
8
 10
4780.437
 20
-7722.670
 30
386.697
 70
    32
  0
VERTEX
  8
T48SSILL
 62
8
 10
4771.937
 20
-7714.633
 30
386.697
 70
    32
  0
VERTEX
  8
T48SSILL
 62
8
 10
4764.059
 20
-7702.588
 30
386.693
 70
    32
  0
VERTEX
  8
T48SSILL
 62
8
 10
4766.167
 20
-7696.555
 30
386.686
 70
    32
  0
VERTEX
  8
T48SSILL
 62
8
 10
4761.176
 20
-7693.170
 30
386.688
 70
    32
  0
VERTEX
  8
T48SSILL
 62
8
 10
4756.842
 20
-7693.637
 30
386.692
 70
    32
  0
VERTEX
  8
T48SSILL
 62
8
 10
4820.607
 20
-7647.315
 30
386.629
 70
    32
  0
VERTEX
  8
T48SSILL
 62
8
 10
4816.766
 20
-7641.277
 30
386.632
 70
    32
  0
VERTEX
  8
T48SSILL
 62
8
 10
4762.577
 20
-7680.640
 30
386.676
 70
    32
  0
VERTEX
  8
T48SSILL
 62
8
 10
4758.706
 20
-7675.311
 30
386.675
 70
    32
  0
VERTEX
  8
T48SSILL
 62
8
 10
4749.007
 20
-7682.377
 30
386.689
 70
    32
  0
VERTEX
  8
T48SSILL
 62
8
 10
4749.438
 20
-7686.668
 30
386.692
 70
    32
  0
VERTEX
  8
T48SSILL
 62
8
 10
4745.126
 20
-7690.045
 30
386.698
 70
    32
  0
VERTEX
  8
T48SSILL
 62
8
 10
4745.537
 20
-7693.018
 30
386.700
 70
    32
  0
VERTEX
  8
T48SSILL
 62
8
 10
4705.745
 20
-7721.922
 30
386.746
 70
    32
  0
VERTEX
  8
T48SSILL
 62
8
 10
4666.297
 20
-7668.334
 30
386.747
 70
    32
  0
VERTEX
  8
T48SSILL
 62
8
 10
4658.966
 20
-7662.712
 30
386.740
 70
    32
  0
VERTEX
  8
T48SSILL
 62
8
 10
4645.530
 20
-7657.629
 30
386.723
 70
    32
  0
VERTEX
  8
T48SSILL
 62
8
 10
4735.716
 20
-7591.841
 30
386.674
 70
    32
  0
VERTEX
  8
T48SSILL
 62
8
 10
4730.888
 20
-7586.394
 30
386.692
 70
    32
  0
VERTEX
  8
T48SSILL
 62
8
 10
4615.477
 20
-7670.306
 30
386.711
 70
    32
  0
VERTEX
  8
T48SSILL
 62
8
 10
4601.459
 20
-7663.637
 30
386.693
 70
    32
  0
VERTEX
  8
T48SSILL
 62
8
 10
4596.043
 20
-7656.444
 30
386.681
 70
    32
  0
VERTEX
  8
T48SSILL
 62
8
 10
4582.915
 20
-7644.008
 30
386.658
 70
    32
  0
VERTEX
  8
T48SSILL
 62
8
 10
4579.945
 20
-7642.867
 30
386.654
 70
    32
  0
VERTEX
  8
T48SSILL
 62
8
 10
4576.632
 20
-7645.212
 30
386.654
 70
    32
  0
VERTEX
  8
T48SSILL
 62
8
 10
4564.700
 20
-7648.362
 30
386.649
 70
    32
  0
VERTEX
  8
T48SSILL
 62
8
 10
4555.441
 20
-7659.565
 30
386.654
 70
    32
  0
VERTEX
  8
T48SSILL
 62
8
 10
4553.393
 20
-7665.987
 30
386.659
 70
    32
  0
VERTEX
  8
T48SSILL
 62
8
 10
4553.096
 20
-7675.495
 30
386.669
 70
    32
  0
VERTEX
  8
T48SSILL
 62
8
 10
4555.249
 20
-7690.295
 30
386.687
 70
    32
  0
VERTEX
  8
T48SSILL
 62
8
 10
4561.166
 20
-7709.794
 30
386.713
 70
    32
  0
VERTEX
  8
T48SSILL
 62
8
 10
4539.251
 20
-7725.728
 30
386.714
 70
    32
  0
VERTEX
  8
T48SSILL
 62
8
 10
4528.260
 20
-7710.049
 30
386.688
 70
    32
  0
VERTEX
  8
T48SSILL
 62
8
 10
4520.905
 20
-7714.931
 30
386.688
 70
    32
  0
VERTEX
  8
T48SSILL
 62
8
 10
4531.626
 20
-7731.450
 30
386.714
 70
    32
  0
VERTEX
  8
T48SSILL
 62
8
 10
4517.696
 20
-7741.095
 30
386.714
 70
    32
  0
VERTEX
  8
T48SSILL
 62
8
 10
4508.969
 20
-7728.462
 30
386.694
 70
    32
  0
VERTEX
  8
T48SSILL
 62
8
 10
4501.983
 20
-7733.407
 30
386.694
 70
    32
  0
VERTEX
  8
T48SSILL
 62
8
 10
4510.770
 20
-7746.430
 30
386.715
 70
    32
  0
VERTEX
  8
T48SSILL
 62
8
 10
4497.802
 20
-7755.882
 30
386.715
 70
    32
  0
VERTEX
  8
T48SSILL
 62
8
 10
4442.884
 20
-7746.411
 30
386.664
 70
    32
  0
VERTEX
  8
T48SSILL
 62
8
 10
4194.448
 20
-7400.232
 30
386.226
 70
    32
  0
VERTEX
  8
T48SSILL
 62
8
 10
4197.327
 20
-7398.033
 30
386.227
 70
    32
  0
VERTEX
  8
T48SSILL
 62
8
 10
4190.954
 20
-7389.558
 30
386.226
 70
    32
  0
VERTEX
  8
T48SSILL
 62
8
 10
4187.829
 20
-7391.719
 30
386.226
 70
    32
  0
VERTEX
  8
T48SSILL
 62
8
 10
4182.538
 20
-7381.439
 30
386.225
 70
    32
  0
VERTEX
  8
T48SSILL
 62
8
 10
4072.499
 20
-7226.683
 30
386.217
 70
    32
  0
VERTEX
  8
T48SSILL
 62
8
 10
4068.109
 20
-7217.578
 30
386.217
 70
    32
  0
VERTEX
  8
T48SSILL
 62
8
 10
4065.875
 20
-7205.290
 30
386.217
 70
    32
  0
VERTEX
  8
T48SSILL
 62
8
 10
4068.136
 20
-7190.197
 30
386.218
 70
    32
  0
VERTEX
  8
T48SSILL
 62
8
 10
4071.134
 20
-7182.607
 30
386.218
 70
    32
  0
VERTEX
  8
T48SSILL
 62
8
 10
4082.728
 20
-7168.714
 30
386.219
 70
    32
  0
VERTEX
  8
T48SSILL
 62
8
 10
4123.708
 20
-7140.155
 30
386.211
 70
    32
  0
VERTEX
  8
T48SSILL
 62
8
 10
4125.939
 20
-7142.347
 30
386.211
 70
    32
  0
VERTEX
  8
T48SSILL
 62
8
 10
4135.332
 20
-7135.795
 30
386.208
 70
    32
  0
VERTEX
  8
T48SSILL
 62
8
 10
4133.549
 20
-7133.171
 30
386.208
 70
    32
  0
VERTEX
  8
T48SSILL
 62
8
 10
4226.527
 20
-7066.483
 30
386.181
 70
    32
  0
VERTEX
  8
T48SSILL
 62
8
 10
4228.587
 20
-7069.342
 30
386.181
 70
    32
  0
VERTEX
  8
T48SSILL
 62
8
 10
4238.909
 20
-7062.120
 30
386.178
 70
    32
  0
VERTEX
  8
T48SSILL
 62
8
 10
4237.012
 20
-7059.035
 30
386.178
 70
    32
  0
VERTEX
  8
T48SSILL
 62
8
 10
4303.408
 20
-7011.507
 30
386.158
 70
    32
  0
VERTEX
  8
T48SSILL
 62
8
 10
4305.376
 20
-7014.540
 30
386.158
 70
    32
  0
VERTEX
  8
T48SSILL
 62
8
 10
4315.841
 20
-7007.215
 30
386.155
 70
    32
  0
VERTEX
  8
T48SSILL
 62
8
 10
4313.749
 20
-7004.162
 30
386.155
 70
    32
  0
VERTEX
  8
T48SSILL
 62
8
 10
4390.137
 20
-6949.106
 30
386.132
 70
    32
  0
VERTEX
  8
T48SSILL
 62
8
 10
4392.630
 20
-6952.413
 30
386.134
 70
    32
  0
VERTEX
  8
T48SSILL
 62
8
 10
4402.562
 20
-6945.254
 30
386.138
 70
    32
  0
VERTEX
  8
T48SSILL
 62
8
 10
4400.213
 20
-6941.844
 30
386.134
 70
    32
  0
VERTEX
  8
T48SSILL
 62
8
 10
4476.851
 20
-6885.775
 30
386.125
 70
    32
  0
VERTEX
  8
T48SSILL
 62
8
 10
4479.007
 20
-6888.450
 30
386.127
 70
    32
  0
VERTEX
  8
T48SSILL
 62
8
 10
4489.048
 20
-6881.172
 30
386.125
 70
    32
  0
VERTEX
  8
T48SSILL
 62
8
 10
4487.566
 20
-6878.227
 30
386.123
 70
    32
  0
VERTEX
  8
T48SSILL
 62
8
 10
4524.567
 20
-6851.194
 30
386.128
 70
    32
  0
VERTEX
  8
T48SSILL
 62
8
 10
4535.045
 20
-6865.651
 30
386.137
 70
    32
  0
VERTEX
  8
T48SSILL
 62
8
 10
4541.189
 20
-6861.089
 30
386.138
 70
    32
  0
VERTEX
  8
T48SSILL
 62
8
 10
4531.112
 20
-6846.885
 30
386.129
 70
    32
  0
VERTEX
  8
T48SSILL
 62
8
 10
4550.859
 20
-6832.465
 30
386.131
 70
    32
  0
VERTEX
  8
T48SSILL
 62
8
 10
4565.937
 20
-6852.821
 30
386.145
 70
    32
  0
VERTEX
  8
T48SSILL
 62
8
 10
4571.809
 20
-6848.782
 30
386.146
 70
    32
  0
VERTEX
  8
T48SSILL
 62
8
 10
4557.113
 20
-6827.606
 30
386.132
 70
    32
  0
VERTEX
  8
T48SSILL
 62
8
 10
4573.150
 20
-6816.309
 30
386.145
 70
    32
  0
VERTEX
  8
T48SSILL
 62
8
 10
4575.364
 20
-6818.615
 30
386.145
 70
    32
  0
VERTEX
  8
T48SSILL
 62
8
 10
4584.900
 20
-6812.139
 30
386.157
 70
    32
  0
VERTEX
  8
T48SSILL
 62
8
 10
4583.366
 20
-6809.123
 30
386.157
 70
    32
  0
VERTEX
  8
T48SSILL
 62
8
 10
4673.346
 20
-6744.128
 30
386.195
 70
    32
  0
VERTEX
  8
T48SSILL
 62
8
 10
4675.179
 20
-6746.058
 30
386.196
 70
    32
  0
VERTEX
  8
T48SSILL
 62
8
 10
4685.213
 20
-6739.220
 30
386.183
 70
    32
  0
VERTEX
  8
T48SSILL
 62
8
 10
4683.950
 20
-6736.877
 30
386.181
 70
    32
  0
VERTEX
  8
T48SSILL
 62
8
 10
4709.433
 20
-6718.082
 30
386.147
 70
    32
  0
VERTEX
  8
T48SSILL
 62
8
 10
4726.199
 20
-6699.848
 30
386.113
 70
    32
  0
VERTEX
  8
T48SSILL
 62
8
 10
4736.494
 20
-6680.330
 30
386.065
 70
    32
  0
VERTEX
  8
T48SSILL
 62
8
 10
4742.019
 20
-6663.073
 30
386.028
 70
    32
  0
VERTEX
  8
T48SSILL
 62
8
 10
4745.366
 20
-6641.312
 30
385.984
 70
    32
  0
VERTEX
  8
T48SSILL
 62
8
 10
4743.612
 20
-6622.705
 30
385.953
 70
    32
  0
VERTEX
  8
T48SSILL
 62
8
 10
5002.891
 20
-7018.978
 30
386.357
 70
    32
  0
VERTEX
  8
T48SSILL
 62
8
 10
5327.035
 20
-7522.487
 30
386.239
 70
    32
  0
VERTEX
  8
T48SSILL
 62
8
 10
5772.896
 20
-8205.215
 30
386.349
 70
    32
  0
VERTEX
  8
T48SSILL
 62
8
 10
5779.512
 20
-8331.178
 30
386.448
 70
    32
  0
VERTEX
  8
T48SSILL
 62
8
 10
5740.758
 20
-8333.301
 30
386.444
 70
    32
  0
VERTEX
  8
T48SSILL
 62
8
 10
5741.536
 20
-8346.063
 30
386.453
 70
    32
  0
VERTEX
  8
T48SSILL
 62
8
 10
5771.208
 20
-8344.609
 30
386.442
 70
    32
  0
VERTEX
  8
T48SSILL
 62
8
 10
5770.956
 20
-8339.957
 30
386.439
 70
    32
  0
VERTEX
  8
T48SSILL
 62
8
 10
5779.771
 20
-8339.366
 30
386.456
 70
    32
  0
VERTEX
  8
T48SSILL
 62
8
 10
5780.621
 20
-8349.932
 30
386.468
 70
    32
  0
VERTEX
  8
T48SSILL
 62
8
 10
5771.344
 20
-8366.726
 30
386.457
 70
    32
  0
VERTEX
  8
T48SSILL
 62
8
 10
5764.985
 20
-8363.773
 30
386.457
 70
    32
  0
VERTEX
  8
T48SSILL
 62
8
 10
5759.893
 20
-8373.669
 30
386.465
 70
    32
  0
VERTEX
  8
T48SSILL
 62
8
 10
5765.676
 20
-8377.025
 30
386.466
 70
    32
  0
VERTEX
  8
T48SSILL
 62
8
 10
5764.696
 20
-8378.998
 30
386.467
 70
    32
  0
VERTEX
  8
T48SSILL
 62
8
 10
5762.327
 20
-8377.760
 30
386.467
 70
    32
  0
VERTEX
  8
T48SSILL
 62
8
 10
5742.975
 20
-8413.733
 30
386.497
 70
    32
  0
VERTEX
  8
T48SSILL
 62
8
 10
5746.518
 20
-8416.189
 30
386.498
 70
    32
  0
VERTEX
  8
T48SSILL
 62
8
 10
5740.561
 20
-8438.493
 30
386.520
 70
    32
  0
VERTEX
  8
T48SSILL
 62
8
 10
5740.720
 20
-8446.538
 30
386.526
 70
    32
  0
VERTEX
  8
T48SSILL
 62
8
 10
5745.919
 20
-8460.711
 30
386.534
 70
    32
  0
VERTEX
  8
T48SSILL
 62
8
 10
5830.280
 20
-8589.664
 30
386.632
 70
    32
  0
VERTEX
  8
T48SSILL
 62
8
 10
5835.249
 20
-8591.551
 30
386.631
 70
    32
  0
VERTEX
  8
T48SSILL
 62
8
 10
5870.084
 20
-8645.610
 30
386.701
 70
    32
  0
VERTEX
  8
T48SSILL
 62
8
 10
5875.284
 20
-8640.468
 30
386.687
 70
    32
  0
VERTEX
  8
T48SSILL
 62
8
 10
5843.049
 20
-8591.350
 30
386.624
 70
    32
  0
VERTEX
  8
T48SSILL
 62
8
 10
5857.957
 20
-8590.572
 30
386.630
 70
    32
  0
VERTEX
  8
T48SSILL
 62
8
 10
5858.555
 20
-8598.631
 30
386.625
 70
    32
  0
VERTEX
  8
T48SSILL
 62
8
 10
5936.509
 20
-8594.715
 30
386.838
 70
    32
  0
VERTEX
  8
T48SSILL
 62
8
 10
5935.904
 20
-8586.339
 30
386.835
 70
    32
  0
VERTEX
  8
T48SSILL
 62
8
 10
5945.605
 20
-8586.095
 30
386.833
 70
    32
  0
VERTEX
  8
T48SSILL
 62
8
 10
5963.595
 20
-8613.635
 30
386.833
 70
    32
  0
VERTEX
  8
T48SSILL
 62
8
 10
5970.711
 20
-8609.084
 30
386.830
 70
    32
  0
VERTEX
  8
T48SSILL
 62
8
 10
5960.060
 20
-8592.181
 30
386.830
 70
    32
  0
VERTEX
  8
T48SSILL
 62
8
 10
5996.818
 20
-8610.662
 30
386.822
 70
    32
  0
VERTEX
  8
T48SSILL
 62
8
 10
5991.992
 20
-8625.843
 30
386.827
 70
    32
  0
VERTEX
  8
T48SSILL
 62
8
 10
5988.492
 20
-8629.581
 30
386.829
 70
    32
  0
VERTEX
  8
T48SSILL
 62
8
 10
5977.581
 20
-8652.778
 30
386.837
 70
    32
  0
VERTEX
  8
T48SSILL
 62
8
 10
5977.746
 20
-8656.848
 30
386.838
 70
    32
  0
VERTEX
  8
T48SSILL
 62
8
 10
5981.729
 20
-8659.318
 30
386.837
 70
    32
  0
VERTEX
  8
T48SSILL
 62
8
 10
5991.379
 20
-8659.001
 30
386.834
 70
    32
  0
VERTEX
  8
T48SSILL
 62
8
 10
6006.908
 20
-8627.529
 30
386.822
 70
    32
  0
VERTEX
  8
T48SSILL
 62
8
 10
6015.060
 20
-8620.320
 30
386.818
 70
    32
  0
VERTEX
  8
T48SSILL
 62
8
 10
6054.772
 20
-8639.953
 30
386.809
 70
    32
  0
VERTEX
  8
T48SSILL
 62
8
 10
6345.409
 20
-9082.633
 30
386.916
 70
    32
  0
VERTEX
  8
T48SSILL
 62
8
 10
6341.329
 20
-9088.771
 30
386.919
 70
    32
  0
VERTEX
  8
T48SSILL
 62
8
 10
6337.069
 20
-9090.333
 30
386.920
 70
    32
  0
VERTEX
  8
T48SSILL
 62
8
 10
6331.467
 20
-9095.816
 30
386.922
 70
    32
  0
VERTEX
  8
T48SSILL
 62
8
 10
6340.187
 20
-9114.879
 30
386.929
 70
    32
  0
VERTEX
  8
T48SSILL
 62
8
 10
6341.667
 20
-9121.332
 30
386.931
 70
    32
  0
VERTEX
  8
T48SSILL
 62
8
 10
6371.574
 20
-9123.795
 30
386.929
 70
    32
  0
VERTEX
  8
T48SSILL
 62
8
 10
6432.039
 20
-9216.935
 30
386.959
 70
    32
  0
VERTEX
  8
T48SSILL
 62
8
 10
6439.052
 20
-9212.717
 30
386.957
 70
    32
  0
VERTEX
  8
T48SSILL
 62
8
 10
6361.190
 20
-9093.385
 30
386.919
 70
    32
  0
VERTEX
  8
T48SSILL
 62
8
 10
6360.456
 20
-9087.698
 30
386.917
 70
    32
  0
VERTEX
  8
T48SSILL
 62
8
 10
6356.694
 20
-9081.652
 30
386.915
 70
    32
  0
VERTEX
  8
T48SSILL
 62
8
 10
6353.039
 20
-9080.231
 30
386.914
 70
    32
  0
VERTEX
  8
T48SSILL
 62
8
 10
6346.947
 20
-9071.307
 30
386.912
 70
    32
  0
VERTEX
  8
T48SSILL
 62
8
 10
6024.093
 20
-8575.582
 30
386.806
 70
    32
  0
VERTEX
  8
T48SSILL
 62
8
 10
6026.801
 20
-8573.471
 30
386.804
 70
    32
  0
VERTEX
  8
T48SSILL
 62
8
 10
6020.686
 20
-8564.123
 30
386.804
 70
    32
  0
VERTEX
  8
T48SSILL
 62
8
 10
6017.705
 20
-8565.996
 30
386.806
 70
    32
  0
VERTEX
  8
T48SSILL
 62
8
 10
5948.006
 20
-8458.757
 30
386.692
 70
    32
  0
VERTEX
  8
T48SSILL
 62
8
 10
5951.154
 20
-8456.661
 30
386.689
 70
    32
  0
VERTEX
  8
T48SSILL
 62
8
 10
5944.326
 20
-8445.988
 30
386.674
 70
    32
  0
VERTEX
  8
T48SSILL
 62
8
 10
5941.157
 20
-8448.206
 30
386.678
 70
    32
  0
VERTEX
  8
T48SSILL
 62
8
 10
5873.627
 20
-8345.137
 30
386.536
 70
    32
  0
VERTEX
  8
T48SSILL
 62
8
 10
5877.156
 20
-8342.667
 30
386.531
 70
    32
  0
VERTEX
  8
T48SSILL
 62
8
 10
5871.027
 20
-8332.685
 30
386.518
 70
    32
  0
VERTEX
  8
T48SSILL
 62
8
 10
5867.160
 20
-8335.285
 30
386.522
 70
    32
  0
VERTEX
  8
T48SSILL
 62
8
 10
5753.380
 20
-8159.857
 30
386.334
 70
    32
  0
VERTEX
  8
T48SSILL
 62
8
 10
5756.693
 20
-8157.538
 30
386.339
 70
    32
  0
VERTEX
  8
T48SSILL
 62
8
 10
5749.779
 20
-8147.354
 30
386.334
 70
    32
  0
VERTEX
  8
T48SSILL
 62
8
 10
5746.732
 20
-8149.594
 30
386.329
 70
    32
  0
VERTEX
  8
T48SSILL
 62
8
 10
5683.317
 20
-8052.498
 30
386.284
 70
    32
  0
VERTEX
  8
T48SSILL
 62
8
 10
5686.415
 20
-8050.306
 30
386.288
 70
    32
  0
VERTEX
  8
T48SSILL
 62
8
 10
5679.342
 20
-8039.849
 30
386.283
 70
    32
  0
VERTEX
  8
T48SSILL
 62
8
 10
5676.184
 20
-8041.651
 30
386.279
 70
    32
  0
VERTEX
  8
T48SSILL
 62
8
 10
5613.035
 20
-7945.661
 30
386.233
 70
    32
  0
VERTEX
  8
T48SSILL
 62
8
 10
5616.544
 20
-7943.286
 30
386.238
 70
    32
  0
VERTEX
  8
T48SSILL
 62
8
 10
5609.360
 20
-7932.366
 30
386.233
 70
    32
  0
VERTEX
  8
T48SSILL
 62
8
 10
5605.749
 20
-7934.597
 30
386.228
 70
    32
  0
VERTEX
  8
T48SSILL
 62
8
 10
5554.440
 20
-7856.720
 30
386.191
 70
    32
  0
VERTEX
  8
T48SSILL
 62
8
 10
5558.208
 20
-7853.946
 30
386.196
 70
    32
  0
VERTEX
  8
T48SSILL
 62
8
 10
5551.543
 20
-7844.065
 30
386.191
 70
    32
  0
VERTEX
  8
T48SSILL
 62
8
 10
5548.516
 20
-7846.206
 30
386.187
 70
    32
  0
VERTEX
  8
T48SSILL
 62
8
 10
5498.732
 20
-7769.413
 30
386.153
 70
    32
  0
VERTEX
  8
T48SSILL
 62
8
 10
5502.343
 20
-7767.182
 30
386.157
 70
    32
  0
VERTEX
  8
T48SSILL
 62
8
 10
5496.518
 20
-7757.572
 30
386.155
 70
    32
  0
VERTEX
  8
T48SSILL
 62
8
 10
5492.618
 20
-7760.007
 30
386.151
 70
    32
  0
VERTEX
  8
T48SSILL
 62
8
 10
5489.146
 20
-7754.029
 30
386.150
 70
    32
  0
VERTEX
  8
T48SSILL
 62
8
 10
5487.300
 20
-7744.848
 30
386.152
 70
    32
  0
VERTEX
  8
T48SSILL
 62
8
 10
5488.067
 20
-7736.304
 30
386.156
 70
    32
  0
VERTEX
  8
T48SSILL
 62
8
 10
5498.297
 20
-7668.844
 30
386.192
 70
    32
  0
VERTEX
  8
T48SSILL
 62
8
 10
5508.274
 20
-7652.380
 30
386.208
 70
    32
  0
VERTEX
  8
T48SSILL
 62
8
 10
5526.547
 20
-7639.237
 30
386.231
 70
    32
  0
VERTEX
  8
T48SSILL
 62
8
 10
5538.948
 20
-7642.249
 30
386.242
 70
    32
  0
VERTEX
  8
T48SSILL
 62
8
 10
5545.438
 20
-7645.767
 30
386.247
 70
    32
  0
VERTEX
  8
T48SSILL
 62
8
 10
5682.624
 20
-7837.397
 30
386.342
 70
    32
  0
VERTEX
  8
T48SSILL
 62
8
 10
5688.023
 20
-7832.497
 30
386.350
 70
    32
  0
VERTEX
  8
T48SSILL
 62
8
 10
5587.081
 20
-7692.100
 30
386.274
 70
    32
  0
VERTEX
  8
T48SSILL
 62
8
 10
5630.328
 20
-7661.073
 30
386.331
 70
    32
  0
VERTEX
  8
T48SSILL
 62
8
 10
5626.076
 20
-7655.215
 30
386.328
 70
    32
  0
VERTEX
  8
T48SSILL
 62
8
 10
5587.410
 20
-7682.784
 30
386.277
 70
    32
  0
VERTEX
  8
T48SSILL
 62
8
 10
5577.503
 20
-7679.630
 30
386.266
 70
    32
  0
VERTEX
  8
T48SSILL
 62
8
 10
5542.514
 20
-7627.726
 30
386.251
 70
    32
  0
VERTEX
  8
T48SSILL
 62
8
 10
5657.306
 20
-7545.762
 30
386.394
 70
    32
  0
VERTEX
  8
T48SSILL
 62
8
 10
5652.352
 20
-7538.454
 30
386.391
 70
    32
  0
VERTEX
  8
T48SSILL
 62
8
 10
5640.462
 20
-7546.865
 30
386.377
 70
    32
  0
VERTEX
  8
T48SSILL
 62
8
 10
5649.305
 20
-7529.257
 30
386.411
 70
    32
  0
VERTEX
  8
T48SSILL
 62
8
 10
5657.710
 20
-7522.338
 30
386.423
 70
    32
  0
VERTEX
  8
T48SSILL
 62
8
 10
5751.890
 20
-7653.788
 30
386.630
 70
    32
  0
VERTEX
  8
T48SSILL
 62
8
 10
5770.109
 20
-7641.332
 30
386.704
 70
    32
  0
VERTEX
  8
T48SSILL
 62
8
 10
5767.020
 20
-7636.813
 30
386.696
 70
    32
  0
VERTEX
  8
T48SSILL
 62
8
 10
5755.965
 20
-7644.418
 30
386.651
 70
    32
  0
VERTEX
  8
T48SSILL
 62
8
 10
5701.001
 20
-7567.180
 30
386.505
 70
    32
  0
VERTEX
  8
T48SSILL
 62
8
 10
5718.178
 20
-7564.868
 30
386.569
 70
    32
  0
VERTEX
  8
T48SSILL
 62
8
 10
5813.070
 20
-7497.414
 30
386.934
 70
    32
  0
VERTEX
  8
T48SSILL
 62
8
 10
5807.578
 20
-7491.028
 30
386.931
 70
    32
  0
VERTEX
  8
T48SSILL
 62
8
 10
5717.956
 20
-7555.078
 30
386.575
 70
    32
  0
VERTEX
  8
T48SSILL
 62
8
 10
5710.490
 20
-7558.738
 30
386.545
 70
    32
  0
VERTEX
  8
T48SSILL
 62
8
 10
5701.400
 20
-7558.573
 30
386.513
 70
    32
  0
VERTEX
  8
T48SSILL
 62
8
 10
5691.499
 20
-7553.900
 30
386.480
 70
    32
  0
VERTEX
  8
T48SSILL
 62
8
 10
5666.921
 20
-7520.687
 30
386.431
 70
    32
  0
VERTEX
  8
T48SSILL
 62
8
 10
5669.095
 20
-7514.284
 30
386.455
 70
    32
  0
VERTEX
  8
T48SSILL
 62
8
 10
5809.603
 20
-7413.804
 30
386.972
 70
    32
  0
VERTEX
  8
T48SSILL
 62
8
 10
5837.131
 20
-7355.514
 30
386.618
 70
    32
  0
VERTEX
  8
T48SSILL
 62
8
 10
5863.649
 20
-7336.755
 30
386.718
 70
    32
  0
VERTEX
  8
T48SSILL
 62
8
 10
5858.750
 20
-7328.760
 30
386.710
 70
    32
  0
VERTEX
  8
T48SSILL
 62
8
 10
5837.561
 20
-7344.506
 30
386.630
 70
    32
  0
VERTEX
  8
T48SSILL
 62
8
 10
5830.059
 20
-7234.558
 30
387.220
 70
    32
  0
VERTEX
  8
T48SSILL
 62
8
 10
5856.291
 20
-7215.243
 30
387.252
 70
    32
  0
VERTEX
  8
T48SSILL
 62
8
 10
5852.357
 20
-7209.377
 30
387.272
 70
    32
  0
VERTEX
  8
T48SSILL
 62
8
 10
5829.362
 20
-7225.320
 30
387.246
 70
    32
  0
VERTEX
  8
T48SSILL
 62
8
 10
5826.647
 20
-7191.710
 30
387.341
 70
    32
  0
VERTEX
  8
T48SSILL
 62
8
 10
5858.207
 20
-7189.835
 30
387.322
 70
    32
  0
VERTEX
  8
T48SSILL
 62
8
 10
5878.189
 20
-7179.534
 30
387.334
 70
    32
  0
VERTEX
  8
T48SSILL
 62
8
 10
5875.540
 20
-7171.442
 30
387.359
 70
    32
  0
VERTEX
  8
T48SSILL
 62
8
 10
5856.447
 20
-7179.803
 30
387.351
 70
    32
  0
VERTEX
  8
T48SSILL
 62
8
 10
5842.555
 20
-7180.419
 30
387.360
 70
    32
  0
VERTEX
  8
T48SSILL
 62
8
 10
5825.580
 20
-7178.249
 30
387.380
 70
    32
  0
VERTEX
  8
T48SSILL
 62
8
 10
5821.824
 20
-7114.099
 30
387.561
 70
    32
  0
VERTEX
  8
T48SSILL
 62
8
 10
5848.405
 20
-7094.971
 30
387.593
 70
    32
  0
VERTEX
  8
T48SSILL
 62
8
 10
5843.321
 20
-7089.161
 30
387.608
 70
    32
  0
VERTEX
  8
T48SSILL
 62
8
 10
5820.767
 20
-7105.116
 30
387.586
 70
    32
  0
VERTEX
  8
T48SSILL
 62
8
 10
5816.150
 20
-7033.023
 30
387.474
 70
    32
  0
VERTEX
  8
T48SSILL
 62
8
 10
5808.469
 20
-7034.240
 30
387.472
 70
    32
  0
VERTEX
  8
T48SSILL
 62
8
 10
5814.147
 20
-7110.124
 30
387.575
 70
    32
  0
VERTEX
  8
T48SSILL
 62
8
 10
5552.251
 20
-7295.030
 30
387.006
 70
    32
  0
VERTEX
  8
T48SSILL
 62
8
 10
5534.959
 20
-7301.450
 30
386.989
 70
    32
  0
VERTEX
  8
T48SSILL
 62
8
 10
5520.934
 20
-7300.579
 30
386.973
 70
    32
  0
VERTEX
  8
T48SSILL
 62
8
 10
5509.967
 20
-7296.243
 30
386.973
 70
    32
  0
VERTEX
  8
T48SSILL
 62
8
 10
5498.629
 20
-7289.250
 30
386.981
 70
    32
  0
VERTEX
  8
T48SSILL
 62
8
 10
5483.556
 20
-7268.902
 30
386.991
 70
    32
  0
VERTEX
  8
T48SSILL
 62
8
 10
5480.104
 20
-7262.050
 30
386.990
 70
    32
  0
VERTEX
  8
T48SSILL
 62
8
 10
5471.930
 20
-7253.571
 30
386.982
 70
    32
  0
VERTEX
  8
T48SSILL
 62
8
 10
5454.016
 20
-7247.672
 30
386.957
 70
    32
  0
VERTEX
  8
T48SSILL
 62
8
 10
5447.237
 20
-7247.720
 30
386.947
 70
    32
  0
VERTEX
  8
T48SSILL
 62
8
 10
5433.835
 20
-7253.220
 30
386.923
 70
    32
  0
VERTEX
  8
T48SSILL
 62
8
 10
5356.428
 20
-7309.068
 30
386.587
 70
    32
  0
VERTEX
  8
T48SSILL
 62
8
 10
5350.183
 20
-7300.411
 30
386.578
 70
    32
  0
VERTEX
  8
T48SSILL
 62
8
 10
5343.541
 20
-7305.227
 30
386.563
 70
    32
  0
VERTEX
  8
T48SSILL
 62
8
 10
5349.960
 20
-7313.977
 30
386.571
 70
    32
  0
VERTEX
  8
T48SSILL
 62
8
 10
5335.289
 20
-7324.702
 30
386.536
 70
    32
  0
VERTEX
  8
T48SSILL
 62
8
 10
5329.851
 20
-7316.879
 30
386.530
 70
    32
  0
VERTEX
  8
T48SSILL
 62
8
 10
5322.183
 20
-7321.774
 30
386.512
 70
    32
  0
VERTEX
  8
T48SSILL
 62
8
 10
5328.101
 20
-7330.122
 30
386.518
 70
    32
  0
VERTEX
  8
T48SSILL
 62
8
 10
5269.015
 20
-7372.766
 30
386.374
 70
    32
  0
VERTEX
  8
T48SSILL
 62
8
 10
5254.185
 20
-7376.251
 30
386.348
 70
    32
  0
VERTEX
  8
T48SSILL
 62
8
 10
5241.994
 20
-7372.782
 30
386.327
 70
    32
  0
VERTEX
  8
T48SSILL
 62
8
 10
5236.575
 20
-7368.189
 30
386.318
 70
    32
  0
VERTEX
  8
T48SSILL
 62
8
 10
5223.620
 20
-7349.151
 30
386.301
 70
    32
  0
VERTEX
  8
T48SSILL
 62
8
 10
5227.125
 20
-7346.774
 30
386.309
 70
    32
  0
VERTEX
  8
T48SSILL
 62
8
 10
5220.955
 20
-7337.308
 30
386.302
 70
    32
  0
VERTEX
  8
T48SSILL
 62
8
 10
5217.398
 20
-7339.613
 30
386.293
 70
    32
  0
VERTEX
  8
T48SSILL
 62
8
 10
5167.354
 20
-7262.308
 30
386.230
 70
    32
  0
VERTEX
  8
T48SSILL
 62
8
 10
5170.811
 20
-7259.100
 30
386.238
 70
    32
  0
VERTEX
  8
T48SSILL
 62
8
 10
5164.878
 20
-7249.358
 30
386.231
 70
    32
  0
VERTEX
  8
T48SSILL
 62
8
 10
5160.635
 20
-7251.609
 30
386.221
 70
    32
  0
VERTEX
  8
T48SSILL
 62
8
 10
5140.074
 20
-7220.013
 30
386.195
 70
    32
  0
VERTEX
  8
T48SSILL
 62
8
 10
5128.012
 20
-7192.015
 30
386.248
 70
    32
  0
VERTEX
  8
T48SSILL
 62
8
 10
5013.813
 20
-7011.714
 30
386.356
 70
    32
  0
VERTEX
  8
T48SSILL
 62
8
 10
4763.780
 20
-6630.899
 30
385.973
 70
    32
  0
VERTEX
  8
T48SSILL
 62
8
 10
4753.583
 20
-6622.974
 30
385.957
 70
    32
  0
VERTEX
  8
T48SSILL
 62
8
 10
4750.488
 20
-6617.504
 30
385.953
 70
    32
  0
VERTEX
  8
T48SSILL
 62
8
 10
4753.376
 20
-6615.194
 30
385.957
 70
    32
  0
VERTEX
  8
T48SSILL
 62
8
 10
4746.584
 20
-6604.474
 30
385.947
 70
    32
  0
VERTEX
  8
T48SSILL
 62
8
 10
4743.458
 20
-6606.306
 30
385.940
 70
    32
  0
VERTEX
  8
T48SSILL
 62
8
 10
4674.444
 20
-6498.491
 30
385.955
 70
    32
  0
VERTEX
  8
T48SSILL
 62
8
 10
4684.616
 20
-6502.634
 30
385.956
 70
    32
  0
VERTEX
  8
T48SSILL
 62
8
 10
4695.186
 20
-6503.880
 30
385.956
 70
    32
  0
VERTEX
  8
T48SSILL
 62
8
 10
4709.617
 20
-6501.459
 30
385.977
 70
    32
  0
VERTEX
  8
T48SSILL
 62
8
 10
4722.080
 20
-6496.772
 30
386.000
 70
    32
  0
VERTEX
  8
T48SSILL
 62
8
 10
5054.494
 20
-6279.310
 30
386.695
 70
    32
  0
VERTEX
  8
T48SSILL
 62
8
 10
5049.777
 20
-6272.514
 30
386.694
 70
    32
  0
VERTEX
  8
T48SSILL
 62
8
 10
4962.578
 20
-6329.409
 30
386.512
 70
    32
  0
VERTEX
  8
T48SSILL
 62
8
 10
4959.393
 20
-6316.936
 30
386.517
 70
    32
  0
VERTEX
  8
T48SSILL
 62
8
 10
4953.054
 20
-6317.189
 30
386.507
 70
    32
  0
VERTEX
  8
T48SSILL
 62
8
 10
4949.570
 20
-6337.548
 30
386.485
 70
    32
  0
VERTEX
  8
T48SSILL
 62
8
 10
4919.794
 20
-6356.883
 30
386.423
 70
    32
  0
VERTEX
  8
T48SSILL
 62
8
 10
4839.654
 20
-6355.816
 30
386.300
 70
    32
  0
VERTEX
  8
T48SSILL
 62
8
 10
4839.592
 20
-6367.711
 30
386.290
 70
    32
  0
VERTEX
  8
T48SSILL
 62
8
 10
4903.421
 20
-6367.575
 30
386.388
 70
    32
  0
VERTEX
  8
T48SSILL
 62
8
 10
4715.587
 20
-6491.010
 30
385.995
 70
    32
  0
VERTEX
  8
T48SSILL
 62
8
 10
4701.360
 20
-6494.925
 30
385.970
 70
    32
  0
VERTEX
  8
T48SSILL
 62
8
 10
4687.479
 20
-6494.674
 30
385.972
 70
    32
  0
VERTEX
  8
T48SSILL
 62
8
 10
4675.633
 20
-6490.337
 30
385.957
 70
    32
  0
VERTEX
  8
T48SSILL
 62
8
 10
4665.974
 20
-6484.521
 30
385.958
 70
    32
  0
VERTEX
  8
T48SSILL
 62
8
 10
4657.780
 20
-6475.032
 30
385.954
 70
    32
  0
VERTEX
  8
T48SSILL
 62
8
 10
4496.786
 20
-6229.774
 30
385.963
 70
    32
  0
VERTEX
  8
T48SSILL
 62
8
 10
4405.953
 20
-6089.968
 30
385.971
 70
    32
  0
VERTEX
  8
T48SSILL
 62
8
 10
4396.290
 20
-6071.069
 30
385.979
 70
    32
  0
VERTEX
  8
T48SSILL
 62
8
 10
4394.865
 20
-6071.813
 30
385.974
 70
    32
  0
VERTEX
  8
T48SSILL
 62
8
 10
4384.147
 20
-6056.404
 30
385.973
 70
    32
  0
VERTEX
  8
T48SSILL
 62
8
 10
3501.911
 20
-4697.233
 30
386.051
 70
    32
  0
VERTEX
  8
T48SSILL
 62
8
 10
3489.491
 20
-4673.451
 30
386.061
 70
    32
  0
VERTEX
  8
T48SSILL
 62
8
 10
3482.981
 20
-4655.834
 30
386.075
 70
    32
  0
VERTEX
  8
T48SSILL
 62
8
 10
3477.890
 20
-4629.984
 30
386.108
 70
    32
  0
VERTEX
  8
T48SSILL
 62
8
 10
3479.295
 20
-4592.093
 30
386.181
 70
    32
  0
VERTEX
  8
T48SSILL
 62
8
 10
3578.848
 20
-4136.655
 30
386.716
 70
    32
  0
VERTEX
  8
T48SSILL
 62
8
 10
3873.589
 20
-2771.086
 30
386.270
 70
    32
  0
VERTEX
  8
T48SSILL
 62
8
 10
3881.624
 20
-2764.044
 30
386.273
 70
    32
  0
VERTEX
  8
T48SSILL
 62
8
 10
3914.403
 20
-2611.963
 30
386.270
 70
    32
  0
VERTEX
  8
T48SSILL
 62
8
 10
3950.272
 20
-2585.041
 30
386.270
 70
    32
  0
VERTEX
  8
T48SSILL
 62
8
 10
3961.238
 20
-2573.422
 30
386.268
 70
    32
  0
VERTEX
  8
T48SSILL
 62
8
 10
3972.407
 20
-2567.863
 30
386.268
 70
    32
  0
VERTEX
  8
T48SSILL
 62
8
 10
3996.335
 20
-2548.534
 30
386.266
 70
    32
  0
VERTEX
  8
T48SSILL
 62
8
 10
3989.514
 20
-2534.559
 30
386.262
 70
    32
  0
VERTEX
  8
T48SSILL
 62
8
 10
3994.986
 20
-2530.256
 30
386.262
 70
    32
  0
VERTEX
  8
T48SSILL
 62
8
 10
3999.302
 20
-2531.833
 30
386.263
 70
    32
  0
VERTEX
  8
T48SSILL
 62
8
 10
4002.597
 20
-2528.310
 30
386.262
 70
    32
  0
VERTEX
  8
T48SSILL
 62
8
 10
3991.897
 20
-2514.198
 30
386.257
 70
    32
  0
VERTEX
  8
T48SSILL
 62
8
 10
3982.019
 20
-2521.876
 30
386.258
 70
    32
  0
VERTEX
  8
T48SSILL
 62
8
 10
3938.673
 20
-2468.397
 30
386.240
 70
    32
  0
VERTEX
  8
T48SSILL
 62
8
 10
4006.088
 20
-2162.289
 30
386.173
 70
    32
  0
VERTEX
  8
T48SSILL
 62
8
 10
4012.565
 20
-2164.095
 30
386.174
 70
    32
  0
VERTEX
  8
T48SSILL
 62
8
 10
4013.956
 20
-2156.496
 30
386.172
 70
    32
  0
VERTEX
  8
T48SSILL
 62
8
 10
4007.216
 20
-2154.780
 30
386.171
 70
    32
  0
VERTEX
  8
T48SSILL
 62
8
 10
4009.282
 20
-2144.006
 30
386.169
 70
    32
  0
VERTEX
  8
T48SSILL
 62
8
 10
4009.234
 20
-2131.192
 30
386.166
 70
    32
  0
VERTEX
  8
T48SSILL
 62
8
 10
4005.876
 20
-2120.134
 30
386.163
 70
    32
  0
VERTEX
  8
T48SSILL
 62
8
 10
3998.418
 20
-2109.219
 30
386.159
 70
    32
  0
VERTEX
  8
T48SSILL
 62
8
 10
3985.790
 20
-2100.816
 30
386.155
 70
    32
  0
VERTEX
  8
T48SSILL
 62
8
 10
3925.518
 20
-2087.183
 30
386.145
 70
    32
  0
VERTEX
  8
T48SSILL
 62
8
 10
3926.206
 20
-2075.911
 30
386.142
 70
    32
  0
VERTEX
  8
T48SSILL
 62
8
 10
3905.111
 20
-2071.212
 30
386.139
 70
    32
  0
VERTEX
  8
T48SSILL
 62
8
 10
3902.494
 20
-2083.294
 30
386.141
 70
    32
  0
VERTEX
  8
T48SSILL
 62
8
 10
3852.929
 20
-2072.220
 30
386.133
 70
    32
  0
VERTEX
  8
T48SSILL
 62
8
 10
3841.415
 20
-2127.439
 30
386.145
 70
    32
  0
VERTEX
  8
T48SSILL
 62
8
 10
3997.913
 20
-2161.449
 30
386.172
 70
    32
  0
VERTEX
  8
T48SSILL
 62
8
 10
3932.033
 20
-2460.290
 30
386.237
 70
    32
  0
VERTEX
  8
T48SSILL
 62
8
 10
3919.152
 20
-2443.440
 30
386.231
 70
    32
  0
VERTEX
  8
T48SSILL
 62
8
 10
3913.492
 20
-2448.210
 30
386.232
 70
    32
  0
VERTEX
  8
T48SSILL
 62
8
 10
3930.218
 20
-2469.654
 30
386.239
 70
    32
  0
VERTEX
  8
T48SSILL
 62
8
 10
3926.661
 20
-2491.918
 30
386.244
 70
    32
  0
VERTEX
  8
T48SSILL
 62
8
 10
3921.376
 20
-2497.188
 30
386.245
 70
    32
  0
VERTEX
  8
T48SSILL
 62
8
 10
3911.011
 20
-2519.445
 30
386.249
 70
    32
  0
VERTEX
  8
T48SSILL
 62
8
 10
3899.091
 20
-2556.767
 30
386.257
 70
    32
  0
VERTEX
  8
T48SSILL
 62
8
 10
3890.324
 20
-2612.984
 30
386.260
 70
    32
  0
VERTEX
  8
T48SSILL
 62
8
 10
3815.580
 20
-2693.736
 30
386.239
 70
    32
  0
VERTEX
  8
T48SSILL
 62
8
 10
3672.302
 20
-2885.303
 30
386.173
 70
    32
  0
VERTEX
  8
T48SSILL
 62
8
 10
3665.701
 20
-2884.253
 30
386.157
 70
    32
  0
VERTEX
  8
T48SSILL
 62
8
 10
3659.372
 20
-2894.126
 30
386.117
 70
    32
  0
VERTEX
  8
T48SSILL
 62
8
 10
3661.573
 20
-2901.061
 30
386.173
 70
    32
  0
VERTEX
  8
T48SSILL
 62
8
 10
3362.559
 20
-3351.702
 30
386.030
 70
    32
  0
VERTEX
  8
T48SSILL
 62
8
 10
3164.525
 20
-3654.204
 30
386.141
 70
    32
  0
VERTEX
  8
T48SSILL
 62
8
 10
3158.694
 20
-3655.395
 30
386.140
 70
    32
  0
VERTEX
  8
T48SSILL
 62
8
 10
3158.774
 20
-3663.551
 30
386.147
 70
    32
  0
VERTEX
  8
T48SSILL
 62
8
 10
2750.708
 20
-4285.089
 30
386.220
 70
    32
  0
VERTEX
  8
T48SSILL
 62
8
 10
2562.779
 20
-4574.782
 30
385.892
 70
    32
  0
VERTEX
  8
T48SSILL
 62
8
 10
2556.740
 20
-4578.184
 30
385.883
 70
    32
  0
VERTEX
  8
T48SSILL
 62
8
 10
2531.660
 20
-4613.259
 30
385.795
 70
    32
  0
VERTEX
  8
T48SSILL
 62
8
 10
2211.806
 20
-4599.974
 30
387.130
 70
    32
  0
VERTEX
  8
T48SSILL
 62
8
 10
2208.427
 20
-4598.536
 30
387.144
 70
    32
  0
VERTEX
  8
T48SSILL
 62
8
 10
2193.365
 20
-4584.810
 30
387.268
 70
    32
  0
VERTEX
  8
T48SSILL
 62
8
 10
2192.977
 20
-4573.668
 30
387.319
 70
    32
  0
VERTEX
  8
T48SSILL
 62
8
 10
2182.787
 20
-4568.841
 30
387.343
 70
    32
  0
VERTEX
  8
T48SSILL
 62
8
 10
2169.932
 20
-4592.596
 30
387.335
 70
    32
  0
VERTEX
  8
T48SSILL
 62
8
 10
2157.886
 20
-4594.867
 30
387.373
 70
    32
  0
VERTEX
  8
T48SSILL
 62
8
 10
2155.388
 20
-4598.596
 30
387.368
 70
    32
  0
VERTEX
  8
T48SSILL
 62
8
 10
2131.279
 20
-4597.655
 30
387.418
 70
    32
  0
VERTEX
  8
T48SSILL
 62
8
 10
2131.319
 20
-4562.896
 30
387.355
 70
    32
  0
VERTEX
  8
T48SSILL
 62
8
 10
2124.227
 20
-4563.270
 30
387.314
 70
    32
  0
VERTEX
  8
T48SSILL
 62
8
 10
2123.531
 20
-4597.696
 30
387.442
 70
    32
  0
VERTEX
  8
T48SSILL
 62
8
 10
1787.183
 20
-4587.032
 30
386.667
 70
    32
  0
VERTEX
  8
T48SSILL
 62
8
 10
1764.635
 20
-4591.772
 30
386.719
 70
    32
  0
VERTEX
  8
T48SSILL
 62
8
 10
1747.301
 20
-4600.101
 30
386.747
 70
    32
  0
VERTEX
  8
T48SSILL
 62
8
 10
1730.120
 20
-4612.170
 30
386.765
 70
    32
  0
VERTEX
  8
T48SSILL
 62
8
 10
1716.939
 20
-4625.762
 30
386.769
 70
    32
  0
VERTEX
  8
T48SSILL
 62
8
 10
1704.061
 20
-4647.273
 30
386.752
 70
    32
  0
VERTEX
  8
T48SSILL
 62
8
 10
1508.679
 20
-5048.887
 30
386.716
 70
    32
  0
VERTEX
  8
T48SSILL
 62
8
 10
1037.866
 20
-5998.352
 30
387.909
 70
    32
  0
VERTEX
  8
T48SSILL
 62
8
 10
818.541
 20
-6446.976
 30
387.452
 70
    32
  0
VERTEX
  8
T48SSILL
 62
8
 10
807.850
 20
-6457.510
 30
387.460
 70
    32
  0
VERTEX
  8
T48SSILL
 62
8
 10
796.528
 20
-6463.049
 30
387.500
 70
    32
  0
VERTEX
  8
T48SSILL
 62
8
 10
778.589
 20
-6465.935
 30
387.542
 70
    32
  0
VERTEX
  8
T48SSILL
 62
8
 10
762.792
 20
-6462.665
 30
387.558
 70
    32
  0
VERTEX
  8
T48SSILL
 62
8
 10
707.538
 20
-6435.986
 30
387.994
 70
    32
  0
VERTEX
  8
T48SSILL
 62
8
 10
697.224
 20
-6428.720
 30
388.077
 70
    32
  0
VERTEX
  8
T48SSILL
 62
8
 10
688.148
 20
-6417.005
 30
388.148
 70
    32
  0
VERTEX
  8
T48SSILL
 62
8
 10
682.473
 20
-6406.745
 30
388.207
 70
    32
  0
VERTEX
  8
T48SSILL
 62
8
 10
685.589
 20
-6400.727
 30
388.229
 70
    32
  0
VERTEX
  8
T48SSILL
 62
8
 10
677.413
 20
-6398.750
 30
388.253
 70
    32
  0
VERTEX
  8
T48SSILL
 62
8
 10
635.865
 20
-6322.947
 30
388.638
 70
    32
  0
VERTEX
  8
T48SSILL
 62
8
 10
635.378
 20
-6312.489
 30
388.664
 70
    32
  0
VERTEX
  8
T48SSILL
 62
8
 10
627.135
 20
-6308.754
 30
388.698
 70
    32
  0
VERTEX
  8
T48SSILL
 62
8
 10
585.462
 20
-6234.276
 30
389.001
 70
    32
  0
VERTEX
  8
T48SSILL
 62
8
 10
587.631
 20
-6226.534
 30
389.012
 70
    32
  0
VERTEX
  8
T48SSILL
 62
8
 10
578.175
 20
-6220.996
 30
389.054
 70
    32
  0
VERTEX
  8
T48SSILL
 62
8
 10
535.682
 20
-6146.207
 30
389.236
 70
    32
  0
VERTEX
  8
T48SSILL
 62
8
 10
537.293
 20
-6141.580
 30
389.234
 70
    32
  0
VERTEX
  8
T48SSILL
 62
8
 10
535.856
 20
-6138.730
 30
389.240
 70
    32
  0
VERTEX
  8
T48SSILL
 62
8
 10
531.216
 20
-6138.389
 30
389.253
 70
    32
  0
VERTEX
  8
T48SSILL
 62
8
 10
486.325
 20
-6058.569
 30
389.434
 70
    32
  0
VERTEX
  8
T48SSILL
 62
8
 10
487.767
 20
-6053.842
 30
389.433
 70
    32
  0
VERTEX
  8
T48SSILL
 62
8
 10
486.041
 20
-6050.549
 30
389.440
 70
    32
  0
VERTEX
  8
T48SSILL
 62
8
 10
481.859
 20
-6050.751
 30
389.452
 70
    32
  0
VERTEX
  8
T48SSILL
 62
8
 10
460.937
 20
-6012.530
 30
389.543
 70
    32
  0
VERTEX
  8
T48SSILL
 62
8
 10
462.838
 20
-6003.507
 30
389.559
 70
    32
  0
VERTEX
  8
T48SSILL
 62
8
 10
462.126
 20
-5999.026
 30
389.571
 70
    32
  0
VERTEX
  8
T48SSILL
 62
8
 10
452.627
 20
-5998.172
 30
389.599
 70
    32
  0
VERTEX
  8
T48SSILL
 62
8
 10
444.894
 20
-5984.699
 30
389.651
 70
    32
  0
VERTEX
  8
T48SSILL
 62
8
 10
436.540
 20
-5969.874
 30
389.708
 70
    32
  0
VERTEX
  8
T48SSILL
 62
8
 10
437.919
 20
-5963.605
 30
389.720
 70
    32
  0
VERTEX
  8
T48SSILL
 62
8
 10
430.416
 20
-5958.401
 30
389.752
 70
    32
  0
VERTEX
  8
T48SSILL
 62
8
 10
388.346
 20
-5883.993
 30
389.996
 70
    32
  0
VERTEX
  8
T48SSILL
 62
8
 10
389.139
 20
-5875.054
 30
389.997
 70
    32
  0
VERTEX
  8
T48SSILL
 62
8
 10
378.421
 20
-5866.056
 30
390.034
 70
    32
  0
VERTEX
  8
T48SSILL
 62
8
 10
337.842
 20
-5794.252
 30
390.069
 70
    32
  0
VERTEX
  8
T48SSILL
 62
8
 10
340.259
 20
-5789.411
 30
390.046
 70
    32
  0
VERTEX
  8
T48SSILL
 62
8
 10
330.892
 20
-5782.161
 30
390.045
 70
    32
  0
VERTEX
  8
T48SSILL
 62
8
 10
287.049
 20
-5704.069
 30
389.885
 70
    32
  0
VERTEX
  8
T48SSILL
 62
8
 10
290.946
 20
-5700.367
 30
389.863
 70
    32
  0
VERTEX
  8
T48SSILL
 62
8
 10
287.932
 20
-5695.914
 30
389.855
 70
    32
  0
VERTEX
  8
T48SSILL
 62
8
 10
284.292
 20
-5698.397
 30
389.873
 70
    32
  0
VERTEX
  8
T48SSILL
 62
8
 10
36.926
 20
-5255.170
 30
390.251
 70
    32
  0
VERTEX
  8
T48SSILL
 62
8
 10
29.188
 20
-5259.277
 30
390.276
 70
    32
  0
VERTEX
  8
T48SSILL
 62
8
 10
128.134
 20
-5437.051
 30
390.326
 70
    32
  0
VERTEX
  8
T48SSILL
 62
8
 10
128.347
 20
-5448.175
 30
390.283
 70
    32
  0
VERTEX
  8
T48SSILL
 62
8
 10
134.914
 20
-5469.673
 30
390.230
 70
    32
  0
VERTEX
  8
T48SSILL
 62
8
 10
153.480
 20
-5481.018
 30
390.211
 70
    32
  0
VERTEX
  8
T48SSILL
 62
8
 10
278.017
 20
-5702.811
 30
389.879
 70
    32
  0
VERTEX
  8
T48SSILL
 62
8
 10
274.617
 20
-5705.663
 30
389.870
 70
    32
  0
VERTEX
  8
T48SSILL
 62
8
 10
276.677
 20
-5710.106
 30
389.878
 70
    32
  0
VERTEX
  8
T48SSILL
 62
8
 10
281.702
 20
-5708.614
 30
389.892
 70
    32
  0
VERTEX
  8
T48SSILL
 62
8
 10
325.954
 20
-5787.492
 30
390.056
 70
    32
  0
VERTEX
  8
T48SSILL
 62
8
 10
325.228
 20
-5797.017
 30
390.058
 70
    32
  0
VERTEX
  8
T48SSILL
 62
8
 10
331.920
 20
-5797.594
 30
390.078
 70
    32
  0
VERTEX
  8
T48SSILL
 62
8
 10
369.965
 20
-5866.000
 30
390.041
 70
    32
  0
VERTEX
  8
T48SSILL
 62
8
 10
374.863
 20
-5883.010
 30
389.996
 70
    32
  0
VERTEX
  8
T48SSILL
 62
8
 10
380.513
 20
-5885.214
 30
390.000
 70
    32
  0
VERTEX
  8
T48SSILL
 62
8
 10
382.891
 20
-5889.660
 30
389.990
 70
    32
  0
VERTEX
  8
T48SSILL
 62
8
 10
381.192
 20
-5893.506
 30
389.974
 70
    32
  0
VERTEX
  8
T48SSILL
 62
8
 10
362.617
 20
-5893.428
 30
389.939
 70
    32
  0
VERTEX
  8
T48SSILL
 62
8
 10
349.593
 20
-5898.145
 30
389.941
 70
    32
  0
VERTEX
  8
T48SSILL
 62
8
 10
184.483
 20
-6017.449
 30
389.739
 70
    32
  0
VERTEX
  8
T48SSILL
 62
8
 10
179.719
 20
-6014.667
 30
389.737
 70
    32
  0
VERTEX
  8
T48SSILL
 62
8
 10
161.445
 20
-6024.075
 30
389.694
 70
    32
  0
VERTEX
  8
T48SSILL
 62
8
 10
159.196
 20
-6021.438
 30
389.695
 70
    32
  0
VERTEX
  8
T48SSILL
 62
8
 10
156.004
 20
-6022.997
 30
389.688
 70
    32
  0
VERTEX
  8
T48SSILL
 62
8
 10
150.567
 20
-6026.758
 30
389.673
 70
    32
  0
VERTEX
  8
T48SSILL
 62
8
 10
150.822
 20
-6033.434
 30
389.661
 70
    32
  0
VERTEX
  8
T48SSILL
 62
8
 10
153.496
 20
-6040.107
 30
389.653
 70
    32
  0
VERTEX
  8
T48SSILL
 62
8
 10
98.123
 20
-6080.059
 30
389.501
 70
    32
  0
VERTEX
  8
T48SSILL
 62
8
 10
102.898
 20
-6086.181
 30
389.497
 70
    32
  0
VERTEX
  8
T48SSILL
 62
8
 10
143.712
 20
-6057.781
 30
389.607
 70
    32
  0
VERTEX
  8
T48SSILL
 62
8
 10
150.612
 20
-6059.490
 30
389.614
 70
    32
  0
VERTEX
  8
T48SSILL
 62
8
 10
159.100
 20
-6056.374
 30
389.632
 70
    32
  0
VERTEX
  8
T48SSILL
 62
8
 10
164.280
 20
-6058.994
 30
389.635
 70
    32
  0
VERTEX
  8
T48SSILL
 62
8
 10
172.528
 20
-6053.090
 30
389.658
 70
    32
  0
VERTEX
  8
T48SSILL
 62
8
 10
177.054
 20
-6040.671
 30
389.687
 70
    32
  0
VERTEX
  8
T48SSILL
 62
8
 10
181.798
 20
-6038.104
 30
389.698
 70
    32
  0
VERTEX
  8
T48SSILL
 62
8
 10
182.338
 20
-6030.704
 30
389.712
 70
    32
  0
VERTEX
  8
T48SSILL
 62
8
 10
184.864
 20
-6027.479
 30
389.722
 70
    32
  0
VERTEX
  8
T48SSILL
 62
8
 10
351.693
 20
-5906.291
 30
389.916
 70
    32
  0
VERTEX
  8
T48SSILL
 62
8
 10
363.940
 20
-5901.357
 30
389.912
 70
    32
  0
VERTEX
  8
T48SSILL
 62
8
 10
373.404
 20
-5900.867
 30
389.936
 70
    32
  0
VERTEX
  8
T48SSILL
 62
8
 10
382.845
 20
-5905.021
 30
389.938
 70
    32
  0
VERTEX
  8
T48SSILL
 62
8
 10
387.051
 20
-5911.956
 30
389.912
 70
    32
  0
VERTEX
  8
T48SSILL
 62
8
 10
398.221
 20
-5916.666
 30
389.914
 70
    32
  0
VERTEX
  8
T48SSILL
 62
8
 10
423.113
 20
-5961.135
 30
389.742
 70
    32
  0
VERTEX
  8
T48SSILL
 62
8
 10
422.306
 20
-5970.707
 30
389.690
 70
    32
  0
VERTEX
  8
T48SSILL
 62
8
 10
431.635
 20
-5976.302
 30
389.683
 70
    32
  0
VERTEX
  8
T48SSILL
 62
8
 10
443.378
 20
-5996.733
 30
389.605
 70
    32
  0
VERTEX
  8
T48SSILL
 62
8
 10
434.642
 20
-6000.114
 30
389.606
 70
    32
  0
VERTEX
  8
T48SSILL
 62
8
 10
433.794
 20
-6008.978
 30
389.588
 70
    32
  0
VERTEX
  8
T48SSILL
 62
8
 10
434.830
 20
-6010.406
 30
389.584
 70
    32
  0
VERTEX
  8
T48SSILL
 62
8
 10
453.494
 20
-6013.701
 30
389.552
 70
    32
  0
VERTEX
  8
T48SSILL
 62
8
 10
475.826
 20
-6052.791
 30
389.470
 70
    32
  0
VERTEX
  8
T48SSILL
 62
8
 10
474.079
 20
-6058.664
 30
389.475
 70
    32
  0
VERTEX
  8
T48SSILL
 62
8
 10
475.623
 20
-6060.708
 30
389.469
 70
    32
  0
VERTEX
  8
T48SSILL
 62
8
 10
480.456
 20
-6061.344
 30
389.451
 70
    32
  0
VERTEX
  8
T48SSILL
 62
8
 10
524.402
 20
-6140.201
 30
389.275
 70
    32
  0
VERTEX
  8
T48SSILL
 62
8
 10
522.168
 20
-6145.971
 30
389.281
 70
    32
  0
VERTEX
  8
T48SSILL
 62
8
 10
524.093
 20
-6148.924
 30
389.274
 70
    32
  0
VERTEX
  8
T48SSILL
 62
8
 10
527.485
 20
-6149.447
 30
389.261
 70
    32
  0
VERTEX
  8
T48SSILL
 62
8
 10
525.883
 20
-6155.541
 30
389.266
 70
    32
  0
VERTEX
  8
T48SSILL
 62
8
 10
502.543
 20
-6157.820
 30
389.350
 70
    32
  0
VERTEX
  8
T48SSILL
 62
8
 10
497.231
 20
-6160.968
 30
389.369
 70
    32
  0
VERTEX
  8
T48SSILL
 62
8
 10
495.863
 20
-6163.510
 30
389.373
 70
    32
  0
VERTEX
  8
T48SSILL
 62
8
 10
190.815
 20
-6383.248
 30
389.094
 70
    32
  0
VERTEX
  8
T48SSILL
 62
8
 10
195.491
 20
-6389.739
 30
389.089
 70
    32
  0
VERTEX
  8
T48SSILL
 62
8
 10
312.592
 20
-6305.387
 30
389.486
 70
    32
  0
VERTEX
  8
T48SSILL
 62
8
 10
320.197
 20
-6303.083
 30
389.510
 70
    32
  0
VERTEX
  8
T48SSILL
 62
8
 10
324.655
 20
-6307.444
 30
389.515
 70
    32
  0
VERTEX
  8
T48SSILL
 62
8
 10
331.628
 20
-6303.887
 30
389.540
 70
    32
  0
VERTEX
  8
T48SSILL
 62
8
 10
346.950
 20
-6299.693
 30
389.589
 70
    32
  0
VERTEX
  8
T48SSILL
 62
8
 10
346.505
 20
-6282.625
 30
389.619
 70
    32
  0
VERTEX
  8
T48SSILL
 62
8
 10
353.303
 20
-6276.061
 30
389.649
 70
    32
  0
VERTEX
  8
T48SSILL
 62
8
 10
500.455
 20
-6170.062
 30
389.355
 70
    32
  0
VERTEX
  8
T48SSILL
 62
8
 10
518.382
 20
-6164.850
 30
389.291
 70
    32
  0
VERTEX
  8
T48SSILL
 62
8
 10
527.833
 20
-6168.051
 30
389.256
 70
    32
  0
VERTEX
  8
T48SSILL
 62
8
 10
535.685
 20
-6177.028
 30
389.226
 70
    32
  0
VERTEX
  8
T48SSILL
 62
8
 10
547.853
 20
-6182.138
 30
389.180
 70
    32
  0
VERTEX
  8
T48SSILL
 62
8
 10
571.030
 20
-6222.942
 30
389.075
 70
    32
  0
VERTEX
  8
T48SSILL
 62
8
 10
571.676
 20
-6235.243
 30
389.050
 70
    32
  0
VERTEX
  8
T48SSILL
 62
8
 10
579.888
 20
-6238.187
 30
389.012
 70
    32
  0
VERTEX
  8
T48SSILL
 62
8
 10
621.021
 20
-6312.333
 30
388.713
 70
    32
  0
VERTEX
  8
T48SSILL
 62
8
 10
620.795
 20
-6320.265
 30
388.699
 70
    32
  0
VERTEX
  8
T48SSILL
 62
8
 10
625.116
 20
-6325.031
 30
388.673
 70
    32
  0
VERTEX
  8
T48SSILL
 62
8
 10
629.646
 20
-6326.090
 30
388.653
 70
    32
  0
VERTEX
  8
T48SSILL
 62
8
 10
671.498
 20
-6402.938
 30
388.254
 70
    32
  0
VERTEX
  8
T48SSILL
 62
8
 10
670.121
 20
-6408.361
 30
388.237
 70
    32
  0
VERTEX
  8
T48SSILL
 62
8
 10
671.925
 20
-6411.814
 30
388.218
 70
    32
  0
VERTEX
  8
T48SSILL
 62
8
 10
676.169
 20
-6409.979
 30
388.211
 70
    32
  0
VERTEX
  8
T48SSILL
 62
8
 10
683.689
 20
-6424.747
 30
388.130
 70
    32
  0
VERTEX
  8
T48SSILL
 62
8
 10
690.122
 20
-6431.809
 30
388.088
 70
    32
  0
VERTEX
  8
T48SSILL
 62
8
 10
699.503
 20
-6439.991
 30
388.024
 70
    32
  0
VERTEX
  8
T48SSILL
 62
8
 10
766.547
 20
-6471.062
 30
387.582
 70
    32
  0
VERTEX
  8
T48SSILL
 62
8
 10
785.982
 20
-6472.784
 30
387.553
 70
    32
  0
VERTEX
  8
T48SSILL
 62
8
 10
798.200
 20
-6469.940
 30
387.522
 70
    32
  0
VERTEX
  8
T48SSILL
 62
8
 10
809.600
 20
-6464.134
 30
387.480
 70
    32
  0
VERTEX
  8
T48SSILL
 62
8
 10
526.624
 20
-7035.386
 30
387.683
 70
    32
  0
VERTEX
  8
T48SSILL
 62
8
 10
516.828
 20
-7040.737
 30
387.683
 70
    32
  0
VERTEX
  8
T48SSILL
 62
8
 10
511.590
 20
-7053.940
 30
387.678
 70
    32
  0
VERTEX
  8
T48SSILL
 62
8
 10
503.789
 20
-7063.872
 30
387.675
 70
    32
  0
VERTEX
  8
T48SSILL
 62
8
 10
501.455
 20
-7065.179
 30
387.675
 70
    32
  0
VERTEX
  8
T48SSILL
 62
8
 10
489.737
 20
-7059.711
 30
387.681
 70
    32
  0
VERTEX
  8
T48SSILL
 62
8
 10
486.343
 20
-7059.603
 30
387.682
 70
    32
  0
VERTEX
  8
T48SSILL
 62
8
 10
487.346
 20
-7069.786
 30
387.676
 70
    32
  0
VERTEX
  8
T48SSILL
 62
8
 10
490.914
 20
-7077.054
 30
387.672
 70
    32
  0
VERTEX
  8
T48SSILL
 62
8
 10
494.078
 20
-7075.676
 30
387.672
 70
    32
  0
VERTEX
  8
T48SSILL
 62
8
 10
495.933
 20
-7078.594
 30
387.670
 70
    32
  0
VERTEX
  8
T48SSILL
 62
8
 10
494.214
 20
-7087.503
 30
387.666
 70
    32
  0
VERTEX
  8
T48SSILL
 62
8
 10
497.445
 20
-7097.563
 30
387.660
 70
    32
  0
VERTEX
  8
T48SSILL
 62
8
 10
495.674
 20
-7104.633
 30
387.658
 70
    32
  0
VERTEX
  8
T48SSILL
 62
8
 10
493.770
 20
-7132.015
 30
387.651
 70
    32
  0
VERTEX
  8
T48SSILL
 62
8
 10
495.372
 20
-7145.062
 30
387.647
 70
    32
  0
VERTEX
  8
T48SSILL
 62
8
 10
502.840
 20
-7167.852
 30
387.640
 70
    32
  0
VERTEX
  8
T48SSILL
 62
8
 10
522.112
 20
-7198.143
 30
387.654
 70
    32
  0
VERTEX
  8
T48SSILL
 62
8
 10
521.808
 20
-7206.434
 30
387.657
 70
    32
  0
VERTEX
  8
T48SSILL
 62
8
 10
519.560
 20
-7212.426
 30
387.659
 70
    32
  0
VERTEX
  8
T48SSILL
 62
8
 10
503.427
 20
-7228.479
 30
387.662
 70
    32
  0
VERTEX
  8
T48SSILL
 62
8
 10
480.607
 20
-7220.073
 30
387.656
 70
    32
  0
VERTEX
  8
T48SSILL
 62
8
 10
468.448
 20
-7213.707
 30
387.652
 70
    32
  0
VERTEX
  8
T48SSILL
 62
8
 10
465.276
 20
-7213.691
 30
387.651
 70
    32
  0
VERTEX
  8
T48SSILL
 62
8
 10
458.869
 20
-7227.825
 30
387.656
 70
    32
  0
VERTEX
  8
T48SSILL
 62
8
 10
469.385
 20
-7233.745
 30
387.659
 70
    32
  0
VERTEX
  8
T48SSILL
 62
8
 10
472.539
 20
-7240.422
 30
387.662
 70
    32
  0
VERTEX
  8
T48SSILL
 62
8
 10
464.391
 20
-7247.949
 30
387.664
 70
    32
  0
VERTEX
  8
T48SSILL
 62
8
 10
458.355
 20
-7256.146
 30
387.666
 70
    32
  0
VERTEX
  8
T48SSILL
 62
8
 10
458.637
 20
-7263.683
 30
387.669
 70
    32
  0
VERTEX
  8
T48SSILL
 62
8
 10
424.877
 20
-7290.218
 30
387.647
 70
    32
  0
VERTEX
  8
T48SSILL
 62
8
 10
430.125
 20
-7296.779
 30
387.643
 70
    32
  0
VERTEX
  8
T48SSILL
 62
8
 10
459.647
 20
-7273.636
 30
387.666
 70
    32
  0
VERTEX
  8
T48SSILL
 62
8
 10
462.636
 20
-7278.235
 30
387.663
 70
    32
  0
VERTEX
  8
T48SSILL
 62
8
 10
462.326
 20
-7289.596
 30
387.654
 70
    32
  0
VERTEX
  8
T48SSILL
 62
8
 10
469.179
 20
-7297.638
 30
387.649
 70
    32
  0
VERTEX
  8
T48SSILL
 62
8
 10
476.742
 20
-7313.502
 30
387.639
 70
    32
  0
VERTEX
  8
T48SSILL
 62
8
 10
489.919
 20
-7314.178
 30
387.641
 70
    32
  0
VERTEX
  8
T48SSILL
 62
8
 10
493.855
 20
-7306.969
 30
387.647
 70
    32
  0
VERTEX
  8
T48SSILL
 62
8
 10
490.569
 20
-7281.552
 30
387.666
 70
    32
  0
VERTEX
  8
T48SSILL
 62
8
 10
486.042
 20
-7270.011
 30
387.674
 70
    32
  0
VERTEX
  8
T48SSILL
 62
8
 10
485.818
 20
-7264.843
 30
387.673
 70
    32
  0
VERTEX
  8
T48SSILL
 62
8
 10
489.751
 20
-7260.381
 30
387.672
 70
    32
  0
VERTEX
  8
T48SSILL
 62
8
 10
491.251
 20
-7248.854
 30
387.668
 70
    32
  0
VERTEX
  8
T48SSILL
 62
8
 10
492.487
 20
-7246.819
 30
387.668
 70
    32
  0
VERTEX
  8
T48SSILL
 62
8
 10
496.514
 20
-7246.299
 30
387.668
 70
    32
  0
VERTEX
  8
T48SSILL
 62
8
 10
500.035
 20
-7250.456
 30
387.670
 70
    32
  0
VERTEX
  8
T48SSILL
 62
8
 10
501.837
 20
-7261.782
 30
387.674
 70
    32
  0
VERTEX
  8
T48SSILL
 62
8
 10
507.420
 20
-7266.998
 30
387.677
 70
    32
  0
VERTEX
  8
T48SSILL
 62
8
 10
512.095
 20
-7275.185
 30
387.675
 70
    32
  0
VERTEX
  8
T48SSILL
 62
8
 10
519.199
 20
-7276.308
 30
387.676
 70
    32
  0
VERTEX
  8
T48SSILL
 62
8
 10
525.460
 20
-7274.689
 30
387.678
 70
    32
  0
VERTEX
  8
T48SSILL
 62
8
 10
531.152
 20
-7268.060
 30
387.681
 70
    32
  0
VERTEX
  8
T48SSILL
 62
8
 10
531.914
 20
-7257.980
 30
387.677
 70
    32
  0
VERTEX
  8
T48SSILL
 62
8
 10
514.975
 20
-7241.354
 30
387.669
 70
    32
  0
VERTEX
  8
T48SSILL
 62
8
 10
511.828
 20
-7235.522
 30
387.666
 70
    32
  0
VERTEX
  8
T48SSILL
 62
8
 10
513.316
 20
-7231.565
 30
387.665
 70
    32
  0
VERTEX
  8
T48SSILL
 62
8
 10
533.172
 20
-7213.051
 30
387.661
 70
    32
  0
VERTEX
  8
T48SSILL
 62
8
 10
838.965
 20
-7639.973
 30
387.480
 70
    32
  0
VERTEX
  8
T48SSILL
 62
8
 10
821.802
 20
-7652.730
 30
387.473
 70
    32
  0
VERTEX
  8
T48SSILL
 62
8
 10
820.727
 20
-7651.108
 30
387.474
 70
    32
  0
VERTEX
  8
T48SSILL
 62
8
 10
815.965
 20
-7654.477
 30
387.472
 70
    32
  0
VERTEX
  8
T48SSILL
 62
8
 10
820.945
 20
-7661.892
 30
387.468
 70
    32
  0
VERTEX
  8
T48SSILL
 62
8
 10
843.096
 20
-7645.928
 30
387.477
 70
    32
  0
VERTEX
  8
T48SSILL
 62
8
 10
873.865
 20
-7688.343
 30
387.458
 70
    32
  0
VERTEX
  8
T48SSILL
 62
8
 10
860.200
 20
-7819.578
 30
387.393
 70
    32
  0
VERTEX
  8
T48SSILL
 62
8
 10
1015.103
 20
-8011.590
 30
387.393
 70
    32
  0
VERTEX
  8
T48SSILL
 62
8
 10
1025.908
 20
-8023.853
 30
387.301
 70
    32
  0
VERTEX
  8
T48SSILL
 62
8
 10
1031.162
 20
-8058.151
 30
387.285
 70
    32
  0
VERTEX
  8
T48SSILL
 62
8
 10
1034.063
 20
-8067.174
 30
387.281
 70
    32
  0
VERTEX
  8
T48SSILL
 62
8
 10
1041.664
 20
-8080.074
 30
387.275
 70
    32
  0
VERTEX
  8
T48SSILL
 62
8
 10
1047.621
 20
-8077.018
 30
387.277
 70
    32
  0
VERTEX
  8
T48SSILL
 62
8
 10
1048.797
 20
-8067.739
 30
387.281
 70
    32
  0
VERTEX
  8
T48SSILL
 62
8
 10
1062.388
 20
-8074.497
 30
387.278
 70
    32
  0
VERTEX
  8
T48SSILL
 62
8
 10
1055.293
 20
-8080.027
 30
387.275
 70
    32
  0
VERTEX
  8
T48SSILL
 62
8
 10
1057.369
 20
-8083.753
 30
387.274
 70
    32
  0
VERTEX
  8
T48SSILL
 62
8
 10
1053.454
 20
-8087.060
 30
387.272
 70
    32
  0
VERTEX
  8
T48SSILL
 62
8
 10
1060.501
 20
-8097.416
 30
387.268
 70
    32
  0
VERTEX
  8
T48SSILL
 62
8
 10
1068.349
 20
-8097.236
 30
387.268
 70
    32
  0
VERTEX
  8
T48SSILL
 62
8
 10
1085.188
 20
-8082.484
 30
387.275
 70
    32
  0
VERTEX
  8
T48SSILL
 62
8
 10
1090.894
 20
-8088.029
 30
387.272
 70
    32
  0
VERTEX
  8
T48SSILL
 62
8
 10
1092.457
 20
-8104.919
 30
387.264
 70
    32
  0
VERTEX
  8
T48SSILL
 62
8
 10
1084.646
 20
-8127.809
 30
387.254
 70
    32
  0
VERTEX
  8
T48SSILL
 62
8
 10
1094.081
 20
-8132.477
 30
387.252
 70
    32
  0
VERTEX
  8
T48SSILL
 62
8
 10
1094.484
 20
-8144.207
 30
387.247
 70
    32
  0
VERTEX
  8
T48SSILL
 62
8
 10
1088.427
 20
-8149.960
 30
387.244
 70
    32
  0
VERTEX
  8
T48SSILL
 62
8
 10
1089.910
 20
-8164.504
 30
387.238
 70
    32
  0
VERTEX
  8
T48SSILL
 62
8
 10
1097.317
 20
-8175.798
 30
387.233
 70
    32
  0
VERTEX
  8
T48SSILL
 62
8
 10
1102.665
 20
-8237.355
 30
387.206
 70
    32
  0
VERTEX
  8
T48SSILL
 62
8
 10
1106.650
 20
-8243.834
 30
387.204
 70
    32
  0
VERTEX
  8
T48SSILL
 62
8
 10
1100.878
 20
-8254.298
 30
387.199
 70
    32
  0
VERTEX
  8
T48SSILL
 62
8
 10
1109.554
 20
-8265.534
 30
387.194
 70
    32
  0
VERTEX
  8
T48SSILL
 62
8
 10
1130.013
 20
-8286.278
 30
387.185
 70
    32
  0
VERTEX
  8
T48SSILL
 62
8
 10
1141.713
 20
-8311.477
 30
387.174
 70
    32
  0
VERTEX
  8
T48SSILL
 62
8
 10
1145.243
 20
-8314.354
 30
387.173
 70
    32
  0
VERTEX
  8
T48SSILL
 62
8
 10
1152.304
 20
-8331.586
 30
387.165
 70
    32
  0
VERTEX
  8
T48SSILL
 62
8
 10
1153.062
 20
-8339.775
 30
387.161
 70
    32
  0
VERTEX
  8
T48SSILL
 62
8
 10
1169.635
 20
-8343.145
 30
387.160
 70
    32
  0
VERTEX
  8
T48SSILL
 62
8
 10
1178.719
 20
-8357.472
 30
387.153
 70
    32
  0
VERTEX
  8
T48SSILL
 62
8
 10
1191.709
 20
-8356.254
 30
387.154
 70
    32
  0
VERTEX
  8
T48SSILL
 62
8
 10
1203.585
 20
-8370.065
 30
387.148
 70
    32
  0
VERTEX
  8
T48SSILL
 62
8
 10
1210.267
 20
-8365.165
 30
387.150
 70
    32
  0
VERTEX
  8
T48SSILL
 62
8
 10
1185.345
 20
-8334.904
 30
387.163
 70
    32
  0
VERTEX
  8
T48SSILL
 62
8
 10
1185.322
 20
-8325.630
 30
387.167
 70
    32
  0
VERTEX
  8
T48SSILL
 62
8
 10
1175.844
 20
-8311.810
 30
387.173
 70
    32
  0
VERTEX
  8
T48SSILL
 62
8
 10
1175.432
 20
-8305.881
 30
387.176
 70
    32
  0
VERTEX
  8
T48SSILL
 62
8
 10
1164.850
 20
-8293.090
 30
387.182
 70
    32
  0
VERTEX
  8
T48SSILL
 62
8
 10
1151.761
 20
-8267.489
 30
387.193
 70
    32
  0
VERTEX
  8
T48SSILL
 62
8
 10
1137.180
 20
-8247.901
 30
387.201
 70
    32
  0
VERTEX
  8
T48SSILL
 62
8
 10
1135.521
 20
-8243.105
 30
387.204
 70
    32
  0
VERTEX
  8
T48SSILL
 62
8
 10
1130.844
 20
-8238.664
 30
387.206
 70
    32
  0
VERTEX
  8
T48SSILL
 62
8
 10
1112.451
 20
-8237.284
 30
387.206
 70
    32
  0
VERTEX
  8
T48SSILL
 62
8
 10
1110.518
 20
-8235.095
 30
387.207
 70
    32
  0
VERTEX
  8
T48SSILL
 62
8
 10
1108.452
 20
-8207.532
 30
387.219
 70
    32
  0
VERTEX
  8
T48SSILL
 62
8
 10
1113.794
 20
-8202.741
 30
387.221
 70
    32
  0
VERTEX
  8
T48SSILL
 62
8
 10
1120.841
 20
-8199.978
 30
387.222
 70
    32
  0
VERTEX
  8
T48SSILL
 62
8
 10
1136.157
 20
-8221.760
 30
387.213
 70
    32
  0
VERTEX
  8
T48SSILL
 62
8
 10
1140.839
 20
-8230.679
 30
387.209
 70
    32
  0
VERTEX
  8
T48SSILL
 62
8
 10
1144.322
 20
-8242.883
 30
387.204
 70
    32
  0
VERTEX
  8
T48SSILL
 62
8
 10
1147.658
 20
-8240.873
 30
387.204
 70
    32
  0
VERTEX
  8
T48SSILL
 62
8
 10
1164.814
 20
-8242.504
 30
387.203
 70
    32
  0
VERTEX
  8
T48SSILL
 62
8
 10
1163.487
 20
-8236.372
 30
387.206
 70
    32
  0
VERTEX
  8
T48SSILL
 62
8
 10
1164.535
 20
-8224.235
 30
387.211
 70
    32
  0
VERTEX
  8
T48SSILL
 62
8
 10
1154.650
 20
-8199.126
 30
387.222
 70
    32
  0
VERTEX
  8
T48SSILL
 62
8
 10
1144.182
 20
-8185.596
 30
387.228
 70
    32
  0
VERTEX
  8
T48SSILL
 62
8
 10
1129.614
 20
-8172.885
 30
387.234
 70
    32
  0
VERTEX
  8
T48SSILL
 62
8
 10
1132.211
 20
-8169.122
 30
387.236
 70
    32
  0
VERTEX
  8
T48SSILL
 62
8
 10
1112.867
 20
-8144.828
 30
387.246
 70
    32
  0
VERTEX
  8
T48SSILL
 62
8
 10
1106.133
 20
-8133.260
 30
387.252
 70
    32
  0
VERTEX
  8
T48SSILL
 62
8
 10
1117.517
 20
-8125.677
 30
387.255
 70
    32
  0
VERTEX
  8
T48SSILL
 62
8
 10
1114.977
 20
-8104.474
 30
387.265
 70
    32
  0
VERTEX
  8
T48SSILL
 62
8
 10
1116.201
 20
-8087.508
 30
387.274
 70
    32
  0
VERTEX
  8
T48SSILL
 62
8
 10
1111.836
 20
-8076.935
 30
387.279
 70
    32
  0
SEQEND
  8
T48SSILL
  0
POLYLINE
  8
T48SSILL
 62
8
 66
     1
 70
     9
  0
VERTEX
  8
T48SSILL
 62
8
 10
825.439
 20
-7414.108
 30
388.162
 70
    32
  0
VERTEX
  8
T48SSILL
 62
8
 10
835.057
 20
-7430.385
 30
388.238
 70
    32
  0
VERTEX
  8
T48SSILL
 62
8
 10
854.280
 20
-7431.966
 30
388.394
 70
    32
  0
VERTEX
  8
T48SSILL
 62
8
 10
865.875
 20
-7420.739
 30
388.491
 70
    32
  0
VERTEX
  8
T48SSILL
 62
8
 10
858.863
 20
-7411.312
 30
388.436
 70
    32
  0
VERTEX
  8
T48SSILL
 62
8
 10
861.222
 20
-7405.862
 30
388.456
 70
    32
  0
VERTEX
  8
T48SSILL
 62
8
 10
870.783
 20
-7397.986
 30
388.536
 70
    32
  0
VERTEX
  8
T48SSILL
 62
8
 10
880.089
 20
-7393.800
 30
388.612
 70
    32
  0
VERTEX
  8
T48SSILL
 62
8
 10
883.905
 20
-7403.048
 30
388.642
 70
    32
  0
VERTEX
  8
T48SSILL
 62
8
 10
890.236
 20
-7408.704
 30
388.692
 70
    32
  0
VERTEX
  8
T48SSILL
 62
8
 10
893.807
 20
-7414.629
 30
388.720
 70
    32
  0
VERTEX
  8
T48SSILL
 62
8
 10
892.509
 20
-7423.024
 30
388.708
 70
    32
  0
VERTEX
  8
T48SSILL
 62
8
 10
840.404
 20
-7450.994
 30
388.305
 70
    32
  0
VERTEX
  8
T48SSILL
 62
8
 10
837.899
 20
-7459.835
 30
388.286
 70
    32
  0
VERTEX
  8
T48SSILL
 62
8
 10
842.172
 20
-7467.763
 30
388.325
 70
    32
  0
VERTEX
  8
T48SSILL
 62
8
 10
842.425
 20
-7473.491
 30
388.328
 70
    32
  0
VERTEX
  8
T48SSILL
 62
8
 10
834.280
 20
-7487.337
 30
388.262
 70
    32
  0
VERTEX
  8
T48SSILL
 62
8
 10
835.835
 20
-7490.359
 30
388.276
 70
    32
  0
VERTEX
  8
T48SSILL
 62
8
 10
847.749
 20
-7497.509
 30
388.380
 70
    32
  0
VERTEX
  8
T48SSILL
 62
8
 10
855.956
 20
-7496.756
 30
388.450
 70
    32
  0
VERTEX
  8
T48SSILL
 62
8
 10
864.086
 20
-7510.400
 30
388.523
 70
    32
  0
VERTEX
  8
T48SSILL
 62
8
 10
877.458
 20
-7510.572
 30
388.638
 70
    32
  0
VERTEX
  8
T48SSILL
 62
8
 10
883.662
 20
-7501.102
 30
388.689
 70
    32
  0
VERTEX
  8
T48SSILL
 62
8
 10
880.245
 20
-7492.547
 30
388.657
 70
    32
  0
VERTEX
  8
T48SSILL
 62
8
 10
872.197
 20
-7484.098
 30
388.586
 70
    32
  0
VERTEX
  8
T48SSILL
 62
8
 10
862.002
 20
-7476.454
 30
388.497
 70
    32
  0
VERTEX
  8
T48SSILL
 62
8
 10
866.549
 20
-7460.535
 30
388.532
 70
    32
  0
VERTEX
  8
T48SSILL
 62
8
 10
901.133
 20
-7442.875
 30
388.777
 70
    32
  0
VERTEX
  8
T48SSILL
 62
8
 10
908.759
 20
-7437.291
 30
388.838
 70
    32
  0
VERTEX
  8
T48SSILL
 62
8
 10
920.254
 20
-7433.254
 30
388.933
 70
    32
  0
VERTEX
  8
T48SSILL
 62
8
 10
923.670
 20
-7431.191
 30
388.961
 70
    32
  0
VERTEX
  8
T48SSILL
 62
8
 10
929.179
 20
-7423.763
 30
389.007
 70
    32
  0
VERTEX
  8
T48SSILL
 62
8
 10
945.958
 20
-7416.623
 30
389.146
 70
    32
  0
VERTEX
  8
T48SSILL
 62
8
 10
947.935
 20
-7413.642
 30
389.162
 70
    32
  0
VERTEX
  8
T48SSILL
 62
8
 10
948.242
 20
-7403.893
 30
389.167
 70
    32
  0
VERTEX
  8
T48SSILL
 62
8
 10
950.167
 20
-7400.841
 30
389.183
 70
    32
  0
VERTEX
  8
T48SSILL
 62
8
 10
968.389
 20
-7386.404
 30
389.335
 70
    32
  0
VERTEX
  8
T48SSILL
 62
8
 10
983.482
 20
-7378.309
 30
389.459
 70
    32
  0
VERTEX
  8
T48SSILL
 62
8
 10
997.823
 20
-7366.494
 30
389.579
 70
    32
  0
VERTEX
  8
T48SSILL
 62
8
 10
1006.056
 20
-7361.889
 30
389.647
 70
    32
  0
VERTEX
  8
T48SSILL
 62
8
 10
1014.781
 20
-7360.647
 30
389.718
 70
    32
  0
VERTEX
  8
T48SSILL
 62
8
 10
1011.815
 20
-7351.213
 30
389.696
 70
    32
  0
VERTEX
  8
T48SSILL
 62
8
 10
1007.342
 20
-7343.759
 30
389.661
 70
    32
  0
VERTEX
  8
T48SSILL
 62
8
 10
994.136
 20
-7349.049
 30
389.552
 70
    32
  0
VERTEX
  8
T48SSILL
 62
8
 10
984.011
 20
-7350.770
 30
389.469
 70
    32
  0
VERTEX
  8
T48SSILL
 62
8
 10
980.416
 20
-7349.899
 30
389.440
 70
    32
  0
VERTEX
  8
T48SSILL
 62
8
 10
967.650
 20
-7332.314
 30
389.339
 70
    32
  0
VERTEX
  8
T48SSILL
 62
8
 10
971.180
 20
-7323.379
 30
389.370
 70
    32
  0
VERTEX
  8
T48SSILL
 62
8
 10
985.283
 20
-7318.418
 30
389.486
 70
    32
  0
VERTEX
  8
T48SSILL
 62
8
 10
995.466
 20
-7310.195
 30
389.571
 70
    32
  0
VERTEX
  8
T48SSILL
 62
8
 10
995.012
 20
-7300.455
 30
389.569
 70
    32
  0
VERTEX
  8
T48SSILL
 62
8
 10
992.150
 20
-7292.807
 30
389.547
 70
    32
  0
VERTEX
  8
T48SSILL
 62
8
 10
1002.681
 20
-7275.791
 30
389.636
 70
    32
  0
VERTEX
  8
T48SSILL
 62
8
 10
1005.115
 20
-7265.359
 30
389.658
 70
    32
  0
VERTEX
  8
T48SSILL
 62
8
 10
1004.634
 20
-7254.983
 30
389.656
 70
    32
  0
VERTEX
  8
T48SSILL
 62
8
 10
1010.531
 20
-7263.036
 30
389.703
 70
    32
  0
VERTEX
  8
T48SSILL
 62
8
 10
1010.575
 20
-7272.966
 30
389.701
 70
    32
  0
VERTEX
  8
T48SSILL
 62
8
 10
1014.301
 20
-7276.260
 30
389.731
 70
    32
  0
VERTEX
  8
T48SSILL
 62
8
 10
1020.924
 20
-7277.979
 30
389.785
 70
    32
  0
VERTEX
  8
T48SSILL
 62
8
 10
1072.633
 20
-7350.693
 30
390.193
 70
    32
  0
VERTEX
  8
T48SSILL
 62
8
 10
1070.679
 20
-7354.752
 30
390.176
 70
    32
  0
VERTEX
  8
T48SSILL
 62
8
 10
1072.055
 20
-7356.481
 30
390.187
 70
    32
  0
VERTEX
  8
T48SSILL
 62
8
 10
1076.893
 20
-7356.660
 30
390.226
 70
    32
  0
VERTEX
  8
T48SSILL
 62
8
 10
1130.924
 20
-7430.302
 30
390.653
 70
    32
  0
VERTEX
  8
T48SSILL
 62
8
 10
1128.474
 20
-7435.928
 30
390.632
 70
    32
  0
VERTEX
  8
T48SSILL
 62
8
 10
1137.409
 20
-7439.458
 30
390.704
 70
    32
  0
VERTEX
  8
T48SSILL
 62
8
 10
1154.246
 20
-7462.602
 30
390.842
 70
    32
  0
VERTEX
  8
T48SSILL
 62
8
 10
1160.471
 20
-7475.889
 30
390.889
 70
    32
  0
VERTEX
  8
T48SSILL
 62
8
 10
1163.290
 20
-7491.999
 30
390.936
 70
    32
  0
VERTEX
  8
T48SSILL
 62
8
 10
1162.034
 20
-7501.348
 30
390.957
 70
    32
  0
VERTEX
  8
T48SSILL
 62
8
 10
1156.940
 20
-7512.633
 30
390.975
 70
    32
  0
VERTEX
  8
T48SSILL
 62
8
 10
1145.418
 20
-7526.652
 30
390.931
 70
    32
  0
VERTEX
  8
T48SSILL
 62
8
 10
1000.395
 20
-7628.679
 30
388.896
 70
    32
  0
VERTEX
  8
T48SSILL
 62
8
 10
1005.200
 20
-7636.438
 30
388.885
 70
    32
  0
VERTEX
  8
T48SSILL
 62
8
 10
1089.469
 20
-7577.035
 30
390.002
 70
    32
  0
VERTEX
  8
T48SSILL
 62
8
 10
1093.717
 20
-7579.398
 30
390.022
 70
    32
  0
VERTEX
  8
T48SSILL
 62
8
 10
1092.172
 20
-7581.624
 30
389.994
 70
    32
  0
VERTEX
  8
T48SSILL
 62
8
 10
1099.928
 20
-7586.236
 30
390.030
 70
    32
  0
VERTEX
  8
T48SSILL
 62
8
 10
1122.575
 20
-7554.217
 30
390.448
 70
    32
  0
VERTEX
  8
T48SSILL
 62
8
 10
1156.252
 20
-7530.982
 30
390.985
 70
    32
  0
VERTEX
  8
T48SSILL
 62
8
 10
1160.187
 20
-7526.787
 30
391.018
 70
    32
  0
VERTEX
  8
T48SSILL
 62
8
 10
1167.909
 20
-7512.812
 30
390.999
 70
    32
  0
VERTEX
  8
T48SSILL
 62
8
 10
1172.103
 20
-7492.224
 30
390.956
 70
    32
  0
VERTEX
  8
T48SSILL
 62
8
 10
1174.527
 20
-7490.450
 30
390.956
 70
    32
  0
VERTEX
  8
T48SSILL
 62
8
 10
1189.209
 20
-7511.996
 30
391.043
 70
    32
  0
VERTEX
  8
T48SSILL
 62
8
 10
1186.731
 20
-7516.985
 30
391.050
 70
    32
  0
VERTEX
  8
T48SSILL
 62
8
 10
1190.797
 20
-7521.343
 30
391.070
 70
    32
  0
VERTEX
  8
T48SSILL
 62
8
 10
1197.758
 20
-7522.925
 30
391.089
 70
    32
  0
VERTEX
  8
T48SSILL
 62
8
 10
1246.612
 20
-7590.394
 30
391.202
 70
    32
  0
VERTEX
  8
T48SSILL
 62
8
 10
1246.273
 20
-7599.948
 30
391.161
 70
    32
  0
VERTEX
  8
T48SSILL
 62
8
 10
1252.457
 20
-7598.376
 30
391.154
 70
    32
  0
VERTEX
  8
T48SSILL
 62
8
 10
1305.613
 20
-7672.768
 30
390.715
 70
    32
  0
VERTEX
  8
T48SSILL
 62
8
 10
1303.922
 20
-7680.027
 30
390.687
 70
    32
  0
VERTEX
  8
T48SSILL
 62
8
 10
1306.042
 20
-7683.073
 30
390.670
 70
    32
  0
VERTEX
  8
T48SSILL
 62
8
 10
1312.307
 20
-7682.208
 30
390.659
 70
    32
  0
VERTEX
  8
T48SSILL
 62
8
 10
1350.463
 20
-7735.067
 30
390.346
 70
    32
  0
VERTEX
  8
T48SSILL
 62
8
 10
1356.644
 20
-7730.651
 30
390.351
 70
    32
  0
VERTEX
  8
T48SSILL
 62
8
 10
1320.534
 20
-7679.688
 30
390.651
 70
    32
  0
VERTEX
  8
T48SSILL
 62
8
 10
1320.193
 20
-7670.850
 30
390.689
 70
    32
  0
VERTEX
  8
T48SSILL
 62
8
 10
1313.522
 20
-7670.261
 30
390.707
 70
    32
  0
VERTEX
  8
T48SSILL
 62
8
 10
1258.732
 20
-7594.985
 30
391.154
 70
    32
  0
VERTEX
  8
T48SSILL
 62
8
 10
1261.500
 20
-7589.346
 30
391.172
 70
    32
  0
VERTEX
  8
T48SSILL
 62
8
 10
1257.314
 20
-7586.171
 30
391.195
 70
    32
  0
VERTEX
  8
T48SSILL
 62
8
 10
1252.338
 20
-7585.654
 30
391.209
 70
    32
  0
VERTEX
  8
T48SSILL
 62
8
 10
1205.548
 20
-7519.958
 30
391.072
 70
    32
  0
VERTEX
  8
T48SSILL
 62
8
 10
1201.814
 20
-7509.773
 30
391.021
 70
    32
  0
VERTEX
  8
T48SSILL
 62
8
 10
1196.444
 20
-7508.122
 30
391.025
 70
    32
  0
VERTEX
  8
T48SSILL
 62
8
 10
1144.450
 20
-7435.616
 30
390.753
 70
    32
  0
VERTEX
  8
T48SSILL
 62
8
 10
1144.285
 20
-7426.869
 30
390.740
 70
    32
  0
VERTEX
  8
T48SSILL
 62
8
 10
1132.733
 20
-7411.242
 30
390.653
 70
    32
  0
VERTEX
  8
T48SSILL
 62
8
 10
1122.995
 20
-7408.409
 30
390.586
 70
    32
  0
VERTEX
  8
T48SSILL
 62
8
 10
1082.962
 20
-7351.341
 30
390.269
 70
    32
  0
VERTEX
  8
T48SSILL
 62
8
 10
1085.858
 20
-7345.279
 30
390.282
 70
    32
  0
VERTEX
  8
T48SSILL
 62
8
 10
1078.834
 20
-7346.153
 30
390.237
 70
    32
  0
VERTEX
  8
T48SSILL
 62
8
 10
1070.096
 20
-7333.172
 30
390.167
 70
    32
  0
VERTEX
  8
T48SSILL
 62
8
 10
1072.566
 20
-7313.519
 30
390.164
 70
    32
  0
VERTEX
  8
T48SSILL
 62
8
 10
1069.111
 20
-7309.698
 30
390.138
 70
    32
  0
VERTEX
  8
T48SSILL
 62
8
 10
1055.470
 20
-7312.899
 30
390.052
 70
    32
  0
VERTEX
  8
T48SSILL
 62
8
 10
1028.012
 20
-7274.650
 30
389.835
 70
    32
  0
VERTEX
  8
T48SSILL
 62
8
 10
1030.608
 20
-7270.122
 30
389.847
 70
    32
  0
VERTEX
  8
T48SSILL
 62
8
 10
1027.897
 20
-7263.130
 30
389.823
 70
    32
  0
VERTEX
  8
T48SSILL
 62
8
 10
1019.141
 20
-7262.534
 30
389.765
 70
    32
  0
VERTEX
  8
T48SSILL
 62
8
 10
991.470
 20
-7222.800
 30
389.545
 70
    32
  0
VERTEX
  8
T48SSILL
 62
8
 10
993.151
 20
-7216.423
 30
389.550
 70
    32
  0
VERTEX
  8
T48SSILL
 62
8
 10
997.446
 20
-7213.169
 30
389.575
 70
    32
  0
VERTEX
  8
T48SSILL
 62
8
 10
995.017
 20
-7209.254
 30
389.555
 70
    32
  0
VERTEX
  8
T48SSILL
 62
8
 10
988.998
 20
-7213.443
 30
389.520
 70
    32
  0
VERTEX
  8
T48SSILL
 62
8
 10
984.785
 20
-7214.119
 30
389.493
 70
    32
  0
VERTEX
  8
T48SSILL
 62
8
 10
972.114
 20
-7195.917
 30
389.393
 70
    32
  0
VERTEX
  8
T48SSILL
 62
8
 10
969.279
 20
-7182.774
 30
389.361
 70
    32
  0
VERTEX
  8
T48SSILL
 62
8
 10
961.776
 20
-7182.247
 30
389.312
 70
    32
  0
VERTEX
  8
T48SSILL
 62
8
 10
959.288
 20
-7179.198
 30
389.293
 70
    32
  0
VERTEX
  8
T48SSILL
 62
8
 10
916.859
 20
-7120.171
 30
389.099
 70
    32
  0
VERTEX
  8
T48SSILL
 62
8
 10
910.255
 20
-7103.692
 30
389.069
 70
    32
  0
VERTEX
  8
T48SSILL
 62
8
 10
903.061
 20
-7101.462
 30
389.077
 70
    32
  0
VERTEX
  8
T48SSILL
 62
8
 10
883.134
 20
-7072.655
 30
389.033
 70
    32
  0
VERTEX
  8
T48SSILL
 62
8
 10
887.715
 20
-7066.240
 30
389.015
 70
    32
  0
VERTEX
  8
T48SSILL
 62
8
 10
879.750
 20
-7049.124
 30
388.975
 70
    32
  0
VERTEX
  8
T48SSILL
 62
8
 10
867.888
 20
-7050.834
 30
388.944
 70
    32
  0
VERTEX
  8
T48SSILL
 62
8
 10
855.239
 20
-7033.362
 30
388.869
 70
    32
  0
VERTEX
  8
T48SSILL
 62
8
 10
857.329
 20
-7024.507
 30
388.861
 70
    32
  0
VERTEX
  8
T48SSILL
 62
8
 10
854.750
 20
-7020.033
 30
388.844
 70
    32
  0
VERTEX
  8
T48SSILL
 62
8
 10
846.017
 20
-7020.612
 30
388.815
 70
    32
  0
VERTEX
  8
T48SSILL
 62
8
 10
794.039
 20
-6946.959
 30
388.505
 70
    32
  0
VERTEX
  8
T48SSILL
 62
8
 10
796.184
 20
-6939.948
 30
388.502
 70
    32
  0
VERTEX
  8
T48SSILL
 62
8
 10
793.996
 20
-6937.173
 30
388.489
 70
    32
  0
VERTEX
  8
T48SSILL
 62
8
 10
787.000
 20
-6937.554
 30
388.464
 70
    32
  0
VERTEX
  8
T48SSILL
 62
8
 10
764.772
 20
-6906.530
 30
388.333
 70
    32
  0
VERTEX
  8
T48SSILL
 62
8
 10
766.967
 20
-6902.681
 30
388.335
 70
    32
  0
VERTEX
  8
T48SSILL
 62
8
 10
869.552
 20
-6828.658
 30
388.440
 70
    32
  0
VERTEX
  8
T48SSILL
 62
8
 10
865.902
 20
-6821.571
 30
388.429
 70
    32
  0
VERTEX
  8
T48SSILL
 62
8
 10
762.769
 20
-6896.335
 30
388.309
 70
    32
  0
VERTEX
  8
T48SSILL
 62
8
 10
751.457
 20
-6901.711
 30
388.276
 70
    32
  0
VERTEX
  8
T48SSILL
 62
8
 10
746.493
 20
-6902.448
 30
388.260
 70
    32
  0
VERTEX
  8
T48SSILL
 62
8
 10
737.874
 20
-6900.956
 30
388.226
 70
    32
  0
VERTEX
  8
T48SSILL
 62
8
 10
651.075
 20
-6856.477
 30
387.837
 70
    32
  0
VERTEX
  8
T48SSILL
 62
8
 10
642.499
 20
-6847.230
 30
387.790
 70
    32
  0
VERTEX
  8
T48SSILL
 62
8
 10
639.346
 20
-6837.564
 30
387.763
 70
    32
  0
VERTEX
  8
T48SSILL
 62
8
 10
641.198
 20
-6822.497
 30
387.745
 70
    32
  0
VERTEX
  8
T48SSILL
 62
8
 10
708.388
 20
-6688.360
 30
387.754
 70
    32
  0
VERTEX
  8
T48SSILL
 62
8
 10
716.997
 20
-6700.893
 30
387.795
 70
    32
  0
VERTEX
  8
T48SSILL
 62
8
 10
726.069
 20
-6708.445
 30
387.836
 70
    32
  0
VERTEX
  8
T48SSILL
 62
8
 10
731.017
 20
-6707.390
 30
387.848
 70
    32
  0
VERTEX
  8
T48SSILL
 62
8
 10
736.315
 20
-6720.238
 30
387.889
 70
    32
  0
VERTEX
  8
T48SSILL
 62
8
 10
745.662
 20
-6718.166
 30
387.911
 70
    32
  0
VERTEX
  8
T48SSILL
 62
8
 10
739.032
 20
-6702.040
 30
387.859
 70
    32
  0
VERTEX
  8
T48SSILL
 62
8
 10
749.496
 20
-6700.678
 30
387.886
 70
    32
  0
VERTEX
  8
T48SSILL
 62
8
 10
753.932
 20
-6706.148
 30
387.910
 70
    32
  0
VERTEX
  8
T48SSILL
 62
8
 10
759.355
 20
-6707.248
 30
387.927
 70
    32
  0
VERTEX
  8
T48SSILL
 62
8
 10
765.270
 20
-6714.794
 30
387.960
 70
    32
  0
VERTEX
  8
T48SSILL
 62
8
 10
768.200
 20
-6715.727
 30
387.970
 70
    32
  0
VERTEX
  8
T48SSILL
 62
8
 10
775.570
 20
-6727.739
 30
388.015
 70
    32
  0
VERTEX
  8
T48SSILL
 62
8
 10
782.924
 20
-6736.094
 30
388.053
 70
    32
  0
VERTEX
  8
T48SSILL
 62
8
 10
792.707
 20
-6738.619
 30
388.086
 70
    32
  0
VERTEX
  8
T48SSILL
 62
8
 10
796.069
 20
-6729.103
 30
388.076
 70
    32
  0
VERTEX
  8
T48SSILL
 62
8
 10
792.188
 20
-6721.079
 30
388.048
 70
    32
  0
VERTEX
  8
T48SSILL
 62
8
 10
780.999
 20
-6715.672
 30
388.006
 70
    32
  0
VERTEX
  8
T48SSILL
 62
8
 10
778.888
 20
-6712.860
 30
387.994
 70
    32
  0
VERTEX
  8
T48SSILL
 62
8
 10
775.300
 20
-6707.217
 30
387.972
 70
    32
  0
VERTEX
  8
T48SSILL
 62
8
 10
775.590
 20
-6703.990
 30
387.966
 70
    32
  0
VERTEX
  8
T48SSILL
 62
8
 10
779.187
 20
-6702.830
 30
387.974
 70
    32
  0
VERTEX
  8
T48SSILL
 62
8
 10
818.801
 20
-6709.673
 30
388.100
 70
    32
  0
VERTEX
  8
T48SSILL
 62
8
 10
832.050
 20
-6709.189
 30
388.136
 70
    32
  0
VERTEX
  8
T48SSILL
 62
8
 10
851.129
 20
-6711.133
 30
388.174
 70
    32
  0
VERTEX
  8
T48SSILL
 62
8
 10
861.389
 20
-6715.692
 30
388.198
 70
    32
  0
VERTEX
  8
T48SSILL
 62
8
 10
882.487
 20
-6727.741
 30
388.347
 70
    32
  0
VERTEX
  8
T48SSILL
 62
8
 10
875.286
 20
-6743.984
 30
388.316
 70
    32
  0
VERTEX
  8
T48SSILL
 62
8
 10
885.308
 20
-6751.086
 30
388.388
 70
    32
  0
VERTEX
  8
T48SSILL
 62
8
 10
891.549
 20
-6743.187
 30
388.420
 70
    32
  0
VERTEX
  8
T48SSILL
 62
8
 10
895.042
 20
-6735.520
 30
388.428
 70
    32
  0
VERTEX
  8
T48SSILL
 62
8
 10
903.406
 20
-6728.483
 30
388.464
 70
    32
  0
VERTEX
  8
T48SSILL
 62
8
 10
909.245
 20
-6715.477
 30
388.477
 70
    32
  0
VERTEX
  8
T48SSILL
 62
8
 10
911.366
 20
-6702.098
 30
388.470
 70
    32
  0
VERTEX
  8
T48SSILL
 62
8
 10
909.593
 20
-6699.154
 30
388.457
 70
    32
  0
VERTEX
  8
T48SSILL
 62
8
 10
909.724
 20
-6692.372
 30
388.448
 70
    32
  0
VERTEX
  8
T48SSILL
 62
8
 10
906.645
 20
-6687.444
 30
388.424
 70
    32
  0
VERTEX
  8
T48SSILL
 62
8
 10
903.486
 20
-6673.620
 30
388.388
 70
    32
  0
VERTEX
  8
T48SSILL
 62
8
 10
906.404
 20
-6667.873
 30
388.396
 70
    32
  0
VERTEX
  8
T48SSILL
 62
8
 10
910.226
 20
-6651.125
 30
388.394
 70
    32
  0
VERTEX
  8
T48SSILL
 62
8
 10
897.877
 20
-6601.987
 30
388.258
 70
    32
  0
VERTEX
  8
T48SSILL
 62
8
 10
890.070
 20
-6604.204
 30
388.219
 70
    32
  0
VERTEX
  8
T48SSILL
 62
8
 10
893.757
 20
-6628.765
 30
388.273
 70
    32
  0
VERTEX
  8
T48SSILL
 62
8
 10
893.680
 20
-6641.227
 30
388.290
 70
    32
  0
VERTEX
  8
T48SSILL
 62
8
 10
880.160
 20
-6645.571
 30
388.222
 70
    32
  0
VERTEX
  8
T48SSILL
 62
8
 10
867.538
 20
-6643.451
 30
388.151
 70
    32
  0
VERTEX
  8
T48SSILL
 62
8
 10
847.842
 20
-6645.183
 30
388.040
 70
    32
  0
VERTEX
  8
T48SSILL
 62
8
 10
843.222
 20
-6647.179
 30
388.024
 70
    32
  0
VERTEX
  8
T48SSILL
 62
8
 10
837.656
 20
-6646.181
 30
388.021
 70
    32
  0
VERTEX
  8
T48SSILL
 62
8
 10
839.362
 20
-6533.344
 30
387.902
 70
    32
  0
VERTEX
  8
T48SSILL
 62
8
 10
844.293
 20
-6528.753
 30
387.905
 70
    32
  0
VERTEX
  8
T48SSILL
 62
8
 10
858.032
 20
-6526.555
 30
387.937
 70
    32
  0
VERTEX
  8
T48SSILL
 62
8
 10
864.798
 20
-6523.919
 30
387.971
 70
    32
  0
VERTEX
  8
T48SSILL
 62
8
 10
864.493
 20
-6513.630
 30
387.955
 70
    32
  0
VERTEX
  8
T48SSILL
 62
8
 10
849.737
 20
-6514.546
 30
387.909
 70
    32
  0
VERTEX
  8
T48SSILL
 62
8
 10
839.466
 20
-6508.423
 30
387.901
 70
    32
  0
VERTEX
  8
T48SSILL
 62
8
 10
839.761
 20
-6463.158
 30
387.900
 70
    32
  0
VERTEX
  8
T48SSILL
 62
8
 10
842.500
 20
-6438.049
 30
387.901
 70
    32
  0
VERTEX
  8
T48SSILL
 62
8
 10
840.982
 20
-6421.378
 30
387.897
 70
    32
  0
VERTEX
  8
T48SSILL
 62
8
 10
1049.582
 20
-5994.258
 30
387.880
 70
    32
  0
VERTEX
  8
T48SSILL
 62
8
 10
1205.222
 20
-5679.763
 30
387.458
 70
    32
  0
VERTEX
  8
T48SSILL
 62
8
 10
1641.063
 20
-4797.057
 30
386.560
 70
    32
  0
VERTEX
  8
T48SSILL
 62
8
 10
1643.988
 20
-4798.614
 30
386.548
 70
    32
  0
VERTEX
  8
T48SSILL
 62
8
 10
1647.900
 20
-4790.737
 30
386.557
 70
    32
  0
VERTEX
  8
T48SSILL
 62
8
 10
1644.394
 20
-4788.844
 30
386.571
 70
    32
  0
VERTEX
  8
T48SSILL
 62
8
 10
1680.081
 20
-4714.180
 30
386.655
 70
    32
  0
VERTEX
  8
T48SSILL
 62
8
 10
1688.010
 20
-4708.586
 30
386.646
 70
    32
  0
VERTEX
  8
T48SSILL
 62
8
 10
1696.091
 20
-4706.289
 30
386.629
 70
    32
  0
VERTEX
  8
T48SSILL
 62
8
 10
1749.385
 20
-4708.517
 30
386.502
 70
    32
  0
VERTEX
  8
T48SSILL
 62
8
 10
1750.526
 20
-4711.959
 30
386.499
 70
    32
  0
VERTEX
  8
T48SSILL
 62
8
 10
1739.985
 20
-4728.642
 30
386.497
 70
    32
  0
VERTEX
  8
T48SSILL
 62
8
 10
1746.890
 20
-4733.610
 30
386.495
 70
    32
  0
VERTEX
  8
T48SSILL
 62
8
 10
1763.975
 20
-4716.109
 30
386.488
 70
    32
  0
VERTEX
  8
T48SSILL
 62
8
 10
1779.208
 20
-4709.240
 30
386.487
 70
    32
  0
VERTEX
  8
T48SSILL
 62
8
 10
1787.320
 20
-4709.784
 30
386.496
 70
    32
  0
VERTEX
  8
T48SSILL
 62
8
 10
1791.609
 20
-4717.587
 30
386.585
 70
    32
  0
VERTEX
  8
T48SSILL
 62
8
 10
1798.963
 20
-4717.705
 30
386.632
 70
    32
  0
VERTEX
  8
T48SSILL
 62
8
 10
1801.728
 20
-4710.356
 30
386.585
 70
    32
  0
VERTEX
  8
T48SSILL
 62
8
 10
1823.031
 20
-4711.169
 30
386.726
 70
    32
  0
VERTEX
  8
T48SSILL
 62
8
 10
1823.659
 20
-4715.103
 30
386.764
 70
    32
  0
VERTEX
  8
T48SSILL
 62
8
 10
1816.536
 20
-4724.280
 30
386.800
 70
    32
  0
VERTEX
  8
T48SSILL
 62
8
 10
1813.240
 20
-4733.127
 30
386.856
 70
    32
  0
VERTEX
  8
T48SSILL
 62
8
 10
1810.724
 20
-4799.737
 30
387.159
 70
    32
  0
VERTEX
  8
T48SSILL
 62
8
 10
1812.101
 20
-4808.505
 30
387.166
 70
    32
  0
VERTEX
  8
T48SSILL
 62
8
 10
1815.829
 20
-4814.966
 30
387.187
 70
    32
  0
VERTEX
  8
T48SSILL
 62
8
 10
1816.115
 20
-4823.009
 30
387.209
 70
    32
  0
VERTEX
  8
T48SSILL
 62
8
 10
1795.479
 20
-4823.678
 30
387.137
 70
    32
  0
VERTEX
  8
T48SSILL
 62
8
 10
1795.742
 20
-4834.490
 30
387.166
 70
    32
  0
VERTEX
  8
T48SSILL
 62
8
 10
1814.769
 20
-4835.793
 30
387.237
 70
    32
  0
VERTEX
  8
T48SSILL
 62
8
 10
1824.799
 20
-4838.756
 30
387.281
 70
    32
  0
VERTEX
  8
T48SSILL
 62
8
 10
1839.054
 20
-4836.471
 30
387.326
 70
    32
  0
VERTEX
  8
T48SSILL
 62
8
 10
1921.942
 20
-4838.822
 30
387.062
 70
    32
  0
VERTEX
  8
T48SSILL
 62
8
 10
1929.758
 20
-4837.054
 30
387.024
 70
    32
  0
VERTEX
  8
T48SSILL
 62
8
 10
1938.642
 20
-4840.103
 30
386.951
 70
    32
  0
VERTEX
  8
T48SSILL
 62
8
 10
1947.872
 20
-4836.398
 30
386.915
 70
    32
  0
VERTEX
  8
T48SSILL
 62
8
 10
1961.985
 20
-4834.660
 30
386.837
 70
    32
  0
VERTEX
  8
T48SSILL
 62
8
 10
1961.993
 20
-4830.250
 30
386.862
 70
    32
  0
VERTEX
  8
T48SSILL
 62
8
 10
2010.336
 20
-4809.207
 30
386.692
 70
    32
  0
VERTEX
  8
T48SSILL
 62
8
 10
2034.846
 20
-4795.997
 30
386.685
 70
    32
  0
VERTEX
  8
T48SSILL
 62
8
 10
2041.499
 20
-4793.568
 30
386.672
 70
    32
  0
VERTEX
  8
T48SSILL
 62
8
 10
2052.466
 20
-4792.651
 30
386.580
 70
    32
  0
VERTEX
  8
T48SSILL
 62
8
 10
2244.248
 20
-4845.614
 30
385.261
 70
    32
  0
VERTEX
  8
T48SSILL
 62
8
 10
2255.259
 20
-4847.412
 30
385.267
 70
    32
  0
VERTEX
  8
T48SSILL
 62
8
 10
2274.489
 20
-4847.702
 30
385.277
 70
    32
  0
VERTEX
  8
T48SSILL
 62
8
 10
2291.594
 20
-4845.289
 30
385.286
 70
    32
  0
VERTEX
  8
T48SSILL
 62
8
 10
2306.416
 20
-4840.401
 30
385.294
 70
    32
  0
VERTEX
  8
T48SSILL
 62
8
 10
2328.013
 20
-4827.937
 30
385.305
 70
    32
  0
VERTEX
  8
T48SSILL
 62
8
 10
2345.069
 20
-4813.362
 30
385.313
 70
    32
  0
VERTEX
  8
T48SSILL
 62
8
 10
2505.924
 20
-4654.285
 30
385.693
 70
    32
  0
VERTEX
  8
T48SSILL
 62
8
 10
2535.697
 20
-4636.961
 30
385.738
 70
    32
  0
VERTEX
  8
T48SSILL
 62
8
 10
2563.241
 20
-4627.312
 30
385.764
 70
    32
  0
VERTEX
  8
T48SSILL
 62
8
 10
2591.981
 20
-4624.577
 30
385.773
 70
    32
  0
VERTEX
  8
T48SSILL
 62
8
 10
2746.474
 20
-4628.801
 30
385.777
 70
    32
  0
VERTEX
  8
T48SSILL
 62
8
 10
2774.300
 20
-4629.803
 30
385.777
 70
    32
  0
VERTEX
  8
T48SSILL
 62
8
 10
2774.415
 20
-4634.296
 30
385.766
 70
    32
  0
VERTEX
  8
T48SSILL
 62
8
 10
2785.493
 20
-4634.395
 30
385.767
 70
    32
  0
VERTEX
  8
T48SSILL
 62
8
 10
2786.045
 20
-4630.069
 30
385.777
 70
    32
  0
VERTEX
  8
T48SSILL
 62
8
 10
3006.351
 20
-4637.955
 30
385.778
 70
    32
  0
VERTEX
  8
T48SSILL
 62
8
 10
3006.925
 20
-4642.331
 30
385.768
 70
    32
  0
VERTEX
  8
T48SSILL
 62
8
 10
3016.488
 20
-4642.444
 30
385.768
 70
    32
  0
VERTEX
  8
T48SSILL
 62
8
 10
3017.163
 20
-4638.138
 30
385.779
 70
    32
  0
VERTEX
  8
T48SSILL
 62
8
 10
3135.238
 20
-4642.410
 30
385.779
 70
    32
  0
VERTEX
  8
T48SSILL
 62
8
 10
3135.760
 20
-4646.714
 30
385.769
 70
    32
  0
VERTEX
  8
T48SSILL
 62
8
 10
3146.015
 20
-4646.432
 30
385.770
 70
    32
  0
VERTEX
  8
T48SSILL
 62
8
 10
3146.510
 20
-4642.475
 30
385.780
 70
    32
  0
VERTEX
  8
T48SSILL
 62
8
 10
3273.810
 20
-4646.996
 30
385.825
 70
    32
  0
VERTEX
  8
T48SSILL
 62
8
 10
3274.139
 20
-4651.333
 30
385.824
 70
    32
  0
VERTEX
  8
T48SSILL
 62
8
 10
3284.835
 20
-4652.254
 30
385.844
 70
    32
  0
VERTEX
  8
T48SSILL
 62
8
 10
3285.341
 20
-4647.418
 30
385.847
 70
    32
  0
VERTEX
  8
T48SSILL
 62
8
 10
3386.989
 20
-4649.932
 30
386.040
 70
    32
  0
VERTEX
  8
T48SSILL
 62
8
 10
3404.594
 20
-4651.811
 30
386.040
 70
    32
  0
VERTEX
  8
T48SSILL
 62
8
 10
3422.312
 20
-4655.787
 30
386.039
 70
    32
  0
VERTEX
  8
T48SSILL
 62
8
 10
3447.248
 20
-4665.180
 30
386.038
 70
    32
  0
VERTEX
  8
T48SSILL
 62
8
 10
3462.490
 20
-4673.684
 30
386.038
 70
    32
  0
VERTEX
  8
T48SSILL
 62
8
 10
3481.217
 20
-4688.911
 30
386.037
 70
    32
  0
VERTEX
  8
T48SSILL
 62
8
 10
3502.582
 20
-4713.439
 30
386.035
 70
    32
  0
VERTEX
  8
T48SSILL
 62
8
 10
3516.875
 20
-4736.038
 30
386.034
 70
    32
  0
VERTEX
  8
T48SSILL
 62
8
 10
3513.938
 20
-4738.288
 30
386.034
 70
    32
  0
VERTEX
  8
T48SSILL
 62
8
 10
3519.885
 20
-4747.792
 30
386.033
 70
    32
  0
VERTEX
  8
T48SSILL
 62
8
 10
3522.764
 20
-4745.912
 30
386.034
 70
    32
  0
VERTEX
  8
T48SSILL
 62
8
 10
3574.882
 20
-4825.936
 30
386.029
 70
    32
  0
VERTEX
  8
T48SSILL
 62
8
 10
3572.035
 20
-4828.011
 30
386.029
 70
    32
  0
VERTEX
  8
T48SSILL
 62
8
 10
3578.882
 20
-4837.404
 30
386.028
 70
    32
  0
VERTEX
  8
T48SSILL
 62
8
 10
3581.632
 20
-4835.945
 30
386.029
 70
    32
  0
VERTEX
  8
T48SSILL
 62
8
 10
3629.956
 20
-4910.017
 30
386.024
 70
    32
  0
VERTEX
  8
T48SSILL
 62
8
 10
3626.792
 20
-4912.105
 30
386.024
 70
    32
  0
VERTEX
  8
T48SSILL
 62
8
 10
3633.172
 20
-4920.858
 30
386.024
 70
    32
  0
VERTEX
  8
T48SSILL
 62
8
 10
3636.439
 20
-4918.912
 30
386.024
 70
    32
  0
VERTEX
  8
T48SSILL
 62
8
 10
3682.217
 20
-4991.136
 30
386.020
 70
    32
  0
VERTEX
  8
T48SSILL
 62
8
 10
3678.963
 20
-4993.398
 30
386.020
 70
    32
  0
VERTEX
  8
T48SSILL
 62
8
 10
3685.129
 20
-5002.307
 30
386.019
 70
    32
  0
VERTEX
  8
T48SSILL
 62
8
 10
3688.487
 20
-5000.186
 30
386.019
 70
    32
  0
VERTEX
  8
T48SSILL
 62
8
 10
3732.905
 20
-5068.887
 30
386.016
 70
    32
  0
VERTEX
  8
T48SSILL
 62
8
 10
3729.266
 20
-5071.522
 30
386.015
 70
    32
  0
VERTEX
  8
T48SSILL
 62
8
 10
3734.504
 20
-5079.927
 30
386.015
 70
    32
  0
VERTEX
  8
T48SSILL
 62
8
 10
3738.338
 20
-5077.697
 30
386.015
 70
    32
  0
VERTEX
  8
T48SSILL
 62
8
 10
3797.161
 20
-5167.808
 30
386.010
 70
    32
  0
VERTEX
  8
T48SSILL
 62
8
 10
3793.996
 20
-5169.754
 30
386.010
 70
    32
  0
VERTEX
  8
T48SSILL
 62
8
 10
3800.154
 20
-5179.672
 30
386.009
 70
    32
  0
VERTEX
  8
T48SSILL
 62
8
 10
3803.760
 20
-5177.724
 30
386.009
 70
    32
  0
VERTEX
  8
T48SSILL
 62
8
 10
3861.167
 20
-5265.373
 30
386.005
 70
    32
  0
VERTEX
  8
T48SSILL
 62
8
 10
3857.404
 20
-5267.550
 30
386.005
 70
    32
  0
VERTEX
  8
T48SSILL
 62
8
 10
3863.259
 20
-5276.482
 30
386.004
 70
    32
  0
VERTEX
  8
T48SSILL
 62
8
 10
3867.057
 20
-5274.058
 30
386.004
 70
    32
  0
VERTEX
  8
T48SSILL
 62
8
 10
3924.433
 20
-5362.834
 30
385.999
 70
    32
  0
VERTEX
  8
T48SSILL
 62
8
 10
3920.759
 20
-5365.716
 30
385.999
 70
    32
  0
VERTEX
  8
T48SSILL
 62
8
 10
3926.139
 20
-5374.455
 30
385.999
 70
    32
  0
VERTEX
  8
T48SSILL
 62
8
 10
3930.342
 20
-5371.836
 30
385.999
 70
    32
  0
VERTEX
  8
T48SSILL
 62
8
 10
3979.684
 20
-5447.917
 30
385.994
 70
    32
  0
VERTEX
  8
T48SSILL
 62
8
 10
3976.220
 20
-5450.199
 30
385.994
 70
    32
  0
VERTEX
  8
T48SSILL
 62
8
 10
3982.111
 20
-5458.884
 30
385.994
 70
    32
  0
VERTEX
  8
T48SSILL
 62
8
 10
3985.576
 20
-5457.043
 30
385.994
 70
    32
  0
VERTEX
  8
T48SSILL
 62
8
 10
4037.747
 20
-5536.726
 30
385.990
 70
    32
  0
VERTEX
  8
T48SSILL
 62
8
 10
4035.005
 20
-5538.795
 30
385.989
 70
    32
  0
VERTEX
  8
T48SSILL
 62
8
 10
4040.348
 20
-5547.341
 30
385.989
 70
    32
  0
VERTEX
  8
T48SSILL
 62
8
 10
4043.919
 20
-5545.640
 30
385.989
 70
    32
  0
VERTEX
  8
T48SSILL
 62
8
 10
4107.574
 20
-5643.470
 30
385.984
 70
    32
  0
VERTEX
  8
T48SSILL
 62
8
 10
4103.935
 20
-5646.105
 30
385.983
 70
    32
  0
VERTEX
  8
T48SSILL
 62
8
 10
4109.826
 20
-5655.230
 30
385.983
 70
    32
  0
VERTEX
  8
T48SSILL
 62
8
 10
4113.607
 20
-5652.930
 30
385.983
 70
    32
  0
VERTEX
  8
T48SSILL
 62
8
 10
4188.319
 20
-5767.903
 30
385.977
 70
    32
  0
VERTEX
  8
T48SSILL
 62
8
 10
4185.013
 20
-5769.956
 30
385.977
 70
    32
  0
VERTEX
  8
T48SSILL
 62
8
 10
4191.346
 20
-5779.521
 30
385.976
 70
    32
  0
VERTEX
  8
T48SSILL
 62
8
 10
4194.582
 20
-5777.521
 30
385.976
 70
    32
  0
VERTEX
  8
T48SSILL
 62
8
 10
4268.315
 20
-5889.150
 30
385.970
 70
    32
  0
VERTEX
  8
T48SSILL
 62
8
 10
4264.394
 20
-5891.557
 30
385.970
 70
    32
  0
VERTEX
  8
T48SSILL
 62
8
 10
4270.711
 20
-5901.686
 30
385.969
 70
    32
  0
VERTEX
  8
T48SSILL
 62
8
 10
4274.632
 20
-5899.279
 30
385.969
 70
    32
  0
VERTEX
  8
T48SSILL
 62
8
 10
4347.701
 20
-6012.513
 30
385.963
 70
    32
  0
VERTEX
  8
T48SSILL
 62
8
 10
4344.378
 20
-6014.689
 30
385.963
 70
    32
  0
VERTEX
  8
T48SSILL
 62
8
 10
4350.429
 20
-6024.026
 30
385.962
 70
    32
  0
VERTEX
  8
T48SSILL
 62
8
 10
4354.211
 20
-6022.165
 30
385.962
 70
    32
  0
VERTEX
  8
T48SSILL
 62
8
 10
4443.861
 20
-6162.497
 30
385.955
 70
    32
  0
VERTEX
  8
T48SSILL
 62
8
 10
4441.963
 20
-6163.930
 30
385.955
 70
    32
  0
VERTEX
  8
T48SSILL
 62
8
 10
4448.738
 20
-6173.933
 30
385.954
 70
    32
  0
VERTEX
  8
T48SSILL
 62
8
 10
4450.425
 20
-6172.660
 30
385.954
 70
    32
  0
VERTEX
  8
T48SSILL
 62
8
 10
4523.293
 20
-6285.002
 30
385.948
 70
    32
  0
VERTEX
  8
T48SSILL
 62
8
 10
4521.176
 20
-6286.430
 30
385.948
 70
    32
  0
VERTEX
  8
T48SSILL
 62
8
 10
4527.009
 20
-6296.111
 30
385.947
 70
    32
  0
VERTEX
  8
T48SSILL
 62
8
 10
4529.359
 20
-6294.406
 30
385.947
 70
    32
  0
VERTEX
  8
T48SSILL
 62
8
 10
4631.604
 20
-6450.658
 30
385.939
 70
    32
  0
VERTEX
  8
T48SSILL
 62
8
 10
4628.621
 20
-6452.389
 30
385.939
 70
    32
  0
VERTEX
  8
T48SSILL
 62
8
 10
4634.065
 20
-6462.134
 30
385.939
 70
    32
  0
VERTEX
  8
T48SSILL
 62
8
 10
4637.515
 20
-6459.847
 30
385.938
 70
    32
  0
VERTEX
  8
T48SSILL
 62
8
 10
4720.946
 20
-6587.535
 30
385.932
 70
    32
  0
VERTEX
  8
T48SSILL
 62
8
 10
4728.837
 20
-6602.020
 30
385.932
 70
    32
  0
VERTEX
  8
T48SSILL
 62
8
 10
4735.912
 20
-6625.570
 30
385.967
 70
    32
  0
VERTEX
  8
T48SSILL
 62
8
 10
4734.932
 20
-6658.541
 30
386.028
 70
    32
  0
VERTEX
  8
T48SSILL
 62
8
 10
4729.459
 20
-6675.869
 30
386.066
 70
    32
  0
VERTEX
  8
T48SSILL
 62
8
 10
4721.759
 20
-6690.574
 30
386.101
 70
    32
  0
VERTEX
  8
T48SSILL
 62
8
 10
4713.151
 20
-6702.678
 30
386.124
 70
    32
  0
VERTEX
  8
T48SSILL
 62
8
 10
4697.264
 20
-6717.777
 30
386.152
 70
    32
  0
VERTEX
  8
T48SSILL
 62
8
 10
4316.628
 20
-6990.912
 30
386.153
 70
    32
  0
VERTEX
  8
T48SSILL
 62
8
 10
4304.300
 20
-6994.582
 30
386.156
 70
    32
  0
VERTEX
  8
T48SSILL
 62
8
 10
4166.127
 20
-7093.757
 30
386.197
 70
    32
  0
VERTEX
  8
T48SSILL
 62
8
 10
4164.235
 20
-7096.855
 30
386.197
 70
    32
  0
VERTEX
  8
T48SSILL
 62
8
 10
4121.289
 20
-7122.031
 30
386.209
 70
    32
  0
VERTEX
  8
T48SSILL
 62
8
 10
4094.226
 20
-7144.557
 30
386.218
 70
    32
  0
VERTEX
  8
T48SSILL
 62
8
 10
4088.071
 20
-7151.376
 30
386.219
 70
    32
  0
VERTEX
  8
T48SSILL
 62
8
 10
4046.651
 20
-7179.576
 30
386.215
 70
    32
  0
VERTEX
  8
T48SSILL
 62
8
 10
4043.231
 20
-7187.029
 30
386.215
 70
    32
  0
VERTEX
  8
T48SSILL
 62
8
 10
3986.589
 20
-7227.384
 30
386.209
 70
    32
  0
VERTEX
  8
T48SSILL
 62
8
 10
3975.172
 20
-7228.554
 30
386.207
 70
    32
  0
VERTEX
  8
T48SSILL
 62
8
 10
3960.832
 20
-7222.499
 30
386.204
 70
    32
  0
VERTEX
  8
T48SSILL
 62
8
 10
3918.371
 20
-7163.686
 30
386.190
 70
    32
  0
VERTEX
  8
T48SSILL
 62
8
 10
3912.382
 20
-7168.324
 30
386.189
 70
    32
  0
VERTEX
  8
T48SSILL
 62
8
 10
3950.224
 20
-7221.025
 30
386.202
 70
    32
  0
VERTEX
  8
T48SSILL
 62
8
 10
3954.594
 20
-7226.340
 30
386.203
 70
    32
  0
VERTEX
  8
T48SSILL
 62
8
 10
3963.162
 20
-7232.212
 30
386.205
 70
    32
  0
VERTEX
  8
T48SSILL
 62
8
 10
3975.444
 20
-7235.409
 30
386.208
 70
    32
  0
VERTEX
  8
T48SSILL
 62
8
 10
3522.106
 20
-7561.094
 30
386.145
 70
    32
  0
VERTEX
  8
T48SSILL
 62
8
 10
3512.876
 20
-7567.261
 30
386.125
 70
    32
  0
VERTEX
  8
T48SSILL
 62
8
 10
3508.268
 20
-7560.924
 30
386.120
 70
    32
  0
VERTEX
  8
T48SSILL
 62
8
 10
3502.818
 20
-7565.104
 30
386.108
 70
    32
  0
VERTEX
  8
T48SSILL
 62
8
 10
3507.270
 20
-7571.227
 30
386.113
 70
    32
  0
VERTEX
  8
T48SSILL
 62
8
 10
3467.119
 20
-7599.983
 30
386.100
 70
    32
  0
VERTEX
  8
T48SSILL
 62
8
 10
3464.621
 20
-7596.248
 30
386.103
 70
    32
  0
VERTEX
  8
T48SSILL
 62
8
 10
3456.880
 20
-7601.768
 30
386.099
 70
    32
  0
VERTEX
  8
T48SSILL
 62
8
 10
3459.513
 20
-7605.839
 30
386.110
 70
    32
  0
VERTEX
  8
T48SSILL
 62
8
 10
3421.009
 20
-7633.663
 30
386.285
 70
    32
  0
VERTEX
  8
T48SSILL
 62
8
 10
3402.611
 20
-7642.085
 30
387.298
 70
    32
  0
VERTEX
  8
T48SSILL
 62
8
 10
3388.121
 20
-7642.834
 30
388.059
 70
    32
  0
VERTEX
  8
T48SSILL
 62
8
 10
3376.017
 20
-7623.911
 30
387.028
 70
    32
  0
VERTEX
  8
T48SSILL
 62
8
 10
3362.970
 20
-7605.716
 30
385.906
 70
    32
  0
VERTEX
  8
T48SSILL
 62
8
 10
3352.048
 20
-7590.782
 30
386.567
 70
    32
  0
VERTEX
  8
T48SSILL
 62
8
 10
3344.592
 20
-7581.664
 30
386.629
 70
    32
  0
VERTEX
  8
T48SSILL
 62
8
 10
3335.777
 20
-7568.005
 30
386.766
 70
    32
  0
VERTEX
  8
T48SSILL
 62
8
 10
3326.230
 20
-7554.676
 30
386.904
 70
    32
  0
VERTEX
  8
T48SSILL
 62
8
 10
3316.950
 20
-7539.789
 30
385.664
 70
    32
  0
VERTEX
  8
T48SSILL
 62
8
 10
3296.772
 20
-7513.873
 30
386.257
 70
    32
  0
VERTEX
  8
T48SSILL
 62
8
 10
3275.917
 20
-7485.254
 30
386.293
 70
    32
  0
VERTEX
  8
T48SSILL
 62
8
 10
3262.282
 20
-7465.767
 30
386.626
 70
    32
  0
VERTEX
  8
T48SSILL
 62
8
 10
3251.311
 20
-7450.605
 30
386.909
 70
    32
  0
VERTEX
  8
T48SSILL
 62
8
 10
3235.763
 20
-7431.639
 30
387.746
 70
    32
  0
VERTEX
  8
T48SSILL
 62
8
 10
3221.902
 20
-7413.431
 30
386.543
 70
    32
  0
VERTEX
  8
T48SSILL
 62
8
 10
3210.209
 20
-7396.242
 30
386.599
 70
    32
  0
VERTEX
  8
T48SSILL
 62
8
 10
3196.422
 20
-7376.439
 30
386.438
 70
    32
  0
VERTEX
  8
T48SSILL
 62
8
 10
3189.851
 20
-7365.985
 30
386.096
 70
    32
  0
VERTEX
  8
T48SSILL
 62
8
 10
3175.735
 20
-7345.840
 30
386.362
 70
    32
  0
VERTEX
  8
T48SSILL
 62
8
 10
3156.101
 20
-7322.648
 30
386.712
 70
    32
  0
VERTEX
  8
T48SSILL
 62
8
 10
3144.549
 20
-7309.659
 30
386.630
 70
    32
  0
VERTEX
  8
T48SSILL
 62
8
 10
3123.209
 20
-7290.243
 30
387.497
 70
    32
  0
VERTEX
  8
T48SSILL
 62
8
 10
3103.573
 20
-7275.604
 30
387.293
 70
    32
  0
VERTEX
  8
T48SSILL
 62
8
 10
3088.537
 20
-7269.948
 30
386.457
 70
    32
  0
VERTEX
  8
T48SSILL
 62
8
 10
3084.810
 20
-7268.297
 30
386.479
 70
    32
  0
VERTEX
  8
T48SSILL
 62
8
 10
3073.893
 20
-7265.719
 30
386.487
 70
    32
  0
VERTEX
  8
T48SSILL
 62
8
 10
3056.575
 20
-7263.236
 30
386.598
 70
    32
  0
VERTEX
  8
T48SSILL
 62
8
 10
3027.365
 20
-7256.815
 30
386.517
 70
    32
  0
VERTEX
  8
T48SSILL
 62
8
 10
3010.813
 20
-7249.667
 30
386.529
 70
    32
  0
VERTEX
  8
T48SSILL
 62
8
 10
3006.079
 20
-7254.165
 30
386.607
 70
    32
  0
VERTEX
  8
T48SSILL
 62
8
 10
3005.828
 20
-7258.875
 30
386.628
 70
    32
  0
VERTEX
  8
T48SSILL
 62
8
 10
3022.342
 20
-7265.714
 30
386.642
 70
    32
  0
VERTEX
  8
T48SSILL
 62
8
 10
3053.367
 20
-7272.322
 30
386.666
 70
    32
  0
VERTEX
  8
T48SSILL
 62
8
 10
3084.481
 20
-7278.048
 30
386.691
 70
    32
  0
VERTEX
  8
T48SSILL
 62
8
 10
3105.389
 20
-7288.609
 30
387.172
 70
    32
  0
VERTEX
  8
T48SSILL
 62
8
 10
3117.061
 20
-7298.043
 30
386.540
 70
    32
  0
VERTEX
  8
T48SSILL
 62
8
 10
3129.192
 20
-7308.654
 30
386.546
 70
    32
  0
VERTEX
  8
T48SSILL
 62
8
 10
3148.316
 20
-7328.588
 30
387.007
 70
    32
  0
VERTEX
  8
T48SSILL
 62
8
 10
3163.616
 20
-7346.637
 30
387.000
 70
    32
  0
VERTEX
  8
T48SSILL
 62
8
 10
3182.211
 20
-7374.603
 30
386.979
 70
    32
  0
VERTEX
  8
T48SSILL
 62
8
 10
3189.338
 20
-7382.373
 30
387.004
 70
    32
  0
VERTEX
  8
T48SSILL
 62
8
 10
3201.227
 20
-7400.382
 30
386.628
 70
    32
  0
VERTEX
  8
T48SSILL
 62
8
 10
3211.542
 20
-7416.721
 30
387.274
 70
    32
  0
VERTEX
  8
T48SSILL
 62
8
 10
3224.050
 20
-7433.158
 30
386.824
 70
    32
  0
VERTEX
  8
T48SSILL
 62
8
 10
3252.642
 20
-7471.664
 30
385.764
 70
    32
  0
VERTEX
  8
T48SSILL
 62
8
 10
3249.584
 20
-7478.229
 30
386.314
 70
    32
  0
VERTEX
  8
T48SSILL
 62
8
 10
3237.240
 20
-7475.649
 30
386.342
 70
    32
  0
VERTEX
  8
T48SSILL
 62
8
 10
3230.544
 20
-7474.695
 30
385.818
 70
    32
  0
VERTEX
  8
T48SSILL
 62
8
 10
3228.399
 20
-7485.693
 30
385.824
 70
    32
  0
VERTEX
  8
T48SSILL
 62
8
 10
3249.046
 20
-7487.672
 30
385.653
 70
    32
  0
VERTEX
  8
T48SSILL
 62
8
 10
3265.113
 20
-7489.874
 30
385.640
 70
    32
  0
VERTEX
  8
T48SSILL
 62
8
 10
3270.916
 20
-7495.901
 30
384.917
 70
    32
  0
VERTEX
  8
T48SSILL
 62
8
 10
3293.647
 20
-7526.892
 30
386.413
 70
    32
  0
VERTEX
  8
T48SSILL
 62
8
 10
3319.647
 20
-7561.839
 30
386.880
 70
    32
  0
VERTEX
  8
T48SSILL
 62
8
 10
3321.843
 20
-7565.863
 30
386.848
 70
    32
  0
VERTEX
  8
T48SSILL
 62
8
 10
3334.722
 20
-7586.914
 30
386.641
 70
    32
  0
VERTEX
  8
T48SSILL
 62
8
 10
3346.687
 20
-7601.295
 30
386.189
 70
    32
  0
VERTEX
  8
T48SSILL
 62
8
 10
3348.162
 20
-7604.114
 30
386.016
 70
    32
  0
VERTEX
  8
T48SSILL
 62
8
 10
3347.633
 20
-7606.957
 30
385.870
 70
    32
  0
VERTEX
  8
T48SSILL
 62
8
 10
3342.016
 20
-7613.657
 30
385.587
 70
    32
  0
VERTEX
  8
T48SSILL
 62
8
 10
3340.204
 20
-7614.530
 30
385.565
 70
    32
  0
VERTEX
  8
T48SSILL
 62
8
 10
3322.854
 20
-7616.468
 30
385.704
 70
    32
  0
VERTEX
  8
T48SSILL
 62
8
 10
3325.739
 20
-7627.247
 30
385.082
 70
    32
  0
VERTEX
  8
T48SSILL
 62
8
 10
3345.677
 20
-7625.444
 30
385.711
 70
    32
  0
VERTEX
  8
T48SSILL
 62
8
 10
3353.994
 20
-7621.932
 30
385.509
 70
    32
  0
VERTEX
  8
T48SSILL
 62
8
 10
3358.996
 20
-7622.885
 30
385.795
 70
    32
  0
VERTEX
  8
T48SSILL
 62
8
 10
3368.217
 20
-7629.849
 30
387.134
 70
    32
  0
VERTEX
  8
T48SSILL
 62
8
 10
3374.686
 20
-7644.371
 30
387.872
 70
    32
  0
VERTEX
  8
T48SSILL
 62
8
 10
3374.288
 20
-7649.115
 30
388.066
 70
    32
  0
VERTEX
  8
T48SSILL
 62
8
 10
3374.350
 20
-7658.083
 30
388.448
 70
    32
  0
VERTEX
  8
T48SSILL
 62
8
 10
3376.583
 20
-7665.480
 30
386.781
 70
    32
  0
VERTEX
  8
T48SSILL
 62
8
 10
2515.761
 20
-8283.773
 30
387.045
 70
    32
  0
VERTEX
  8
T48SSILL
 62
8
 10
2132.504
 20
-8556.772
 30
386.984
 70
    32
  0
VERTEX
  8
T48SSILL
 62
8
 10
1741.809
 20
-8838.563
 30
386.921
 70
    32
  0
VERTEX
  8
T48SSILL
 62
8
 10
1734.350
 20
-8842.080
 30
386.921
 70
    32
  0
VERTEX
  8
T48SSILL
 62
8
 10
1720.272
 20
-8842.432
 30
386.922
 70
    32
  0
VERTEX
  8
T48SSILL
 62
8
 10
1710.409
 20
-8837.472
 30
386.926
 70
    32
  0
VERTEX
  8
T48SSILL
 62
8
 10
1703.633
 20
-8829.860
 30
386.929
 70
    32
  0
VERTEX
  8
T48SSILL
 62
8
 10
1402.700
 20
-8411.624
 30
387.151
 70
    32
  0
VERTEX
  8
T48SSILL
 62
8
 10
1406.953
 20
-8405.804
 30
387.226
 70
    32
  0
VERTEX
  8
T48SSILL
 62
8
 10
1412.707
 20
-8407.947
 30
387.261
 70
    32
  0
VERTEX
  8
T48SSILL
 62
8
 10
1417.826
 20
-8406.275
 30
387.316
 70
    32
  0
VERTEX
  8
T48SSILL
 62
8
 10
1427.322
 20
-8399.035
 30
387.333
 70
    32
  0
VERTEX
  8
T48SSILL
 62
8
 10
1427.346
 20
-8395.910
 30
387.347
 70
    32
  0
VERTEX
  8
T48SSILL
 62
8
 10
1433.462
 20
-8391.151
 30
387.353
 70
    32
  0
VERTEX
  8
T48SSILL
 62
8
 10
1429.054
 20
-8382.887
 30
387.398
 70
    32
  0
VERTEX
  8
T48SSILL
 62
8
 10
1424.628
 20
-8380.902
 30
387.417
 70
    32
  0
VERTEX
  8
T48SSILL
 62
8
 10
1412.255
 20
-8391.834
 30
387.364
 70
    32
  0
VERTEX
  8
T48SSILL
 62
8
 10
1401.903
 20
-8397.738
 30
387.236
 70
    32
  0
VERTEX
  8
T48SSILL
 62
8
 10
1389.241
 20
-8393.141
 30
387.158
 70
    32
  0
VERTEX
  8
T48SSILL
 62
8
 10
1312.977
 20
-8287.882
 30
387.202
 70
    32
  0
VERTEX
  8
T48SSILL
 62
8
 10
1311.352
 20
-8281.641
 30
387.230
 70
    32
  0
VERTEX
  8
T48SSILL
 62
8
 10
1312.352
 20
-8278.831
 30
387.257
 70
    32
  0
VERTEX
  8
T48SSILL
 62
8
 10
1363.389
 20
-8243.483
 30
387.929
 70
    32
  0
VERTEX
  8
T48SSILL
 62
8
 10
1373.195
 20
-8228.532
 30
388.112
 70
    32
  0
VERTEX
  8
T48SSILL
 62
8
 10
1388.263
 20
-8186.766
 30
388.330
 70
    32
  0
VERTEX
  8
T48SSILL
 62
8
 10
1379.287
 20
-8183.619
 30
388.364
 70
    32
  0
VERTEX
  8
T48SSILL
 62
8
 10
1366.940
 20
-8218.361
 30
388.126
 70
    32
  0
VERTEX
  8
T48SSILL
 62
8
 10
1349.973
 20
-8241.734
 30
387.826
 70
    32
  0
VERTEX
  8
T48SSILL
 62
8
 10
1316.736
 20
-8264.684
 30
387.389
 70
    32
  0
VERTEX
  8
T48SSILL
 62
8
 10
1306.997
 20
-8265.267
 30
387.301
 70
    32
  0
VERTEX
  8
T48SSILL
 62
8
 10
1301.059
 20
-8263.281
 30
387.263
 70
    32
  0
VERTEX
  8
T48SSILL
 62
8
 10
1286.364
 20
-8250.992
 30
387.219
 70
    32
  0
VERTEX
  8
T48SSILL
 62
8
 10
1269.829
 20
-8227.698
 30
387.232
 70
    32
  0
VERTEX
  8
T48SSILL
 62
8
 10
1275.464
 20
-8223.457
 30
387.308
 70
    32
  0
VERTEX
  8
T48SSILL
 62
8
 10
1286.763
 20
-8210.690
 30
387.490
 70
    32
  0
VERTEX
  8
T48SSILL
 62
8
 10
1298.991
 20
-8188.606
 30
387.741
 70
    32
  0
VERTEX
  8
T48SSILL
 62
8
 10
1313.161
 20
-8187.507
 30
387.870
 70
    32
  0
VERTEX
  8
T48SSILL
 62
8
 10
1325.786
 20
-8193.991
 30
387.935
 70
    32
  0
VERTEX
  8
T48SSILL
 62
8
 10
1325.189
 20
-8198.692
 30
387.899
 70
    32
  0
VERTEX
  8
T48SSILL
 62
8
 10
1328.454
 20
-8209.853
 30
387.853
 70
    32
  0
VERTEX
  8
T48SSILL
 62
8
 10
1337.387
 20
-8210.408
 30
387.926
 70
    32
  0
VERTEX
  8
T48SSILL
 62
8
 10
1343.875
 20
-8208.820
 30
387.992
 70
    32
  0
VERTEX
  8
T48SSILL
 62
8
 10
1352.225
 20
-8212.754
 30
388.037
 70
    32
  0
VERTEX
  8
T48SSILL
 62
8
 10
1356.808
 20
-8209.612
 30
388.097
 70
    32
  0
VERTEX
  8
T48SSILL
 62
8
 10
1359.310
 20
-8201.546
 30
388.172
 70
    32
  0
VERTEX
  8
T48SSILL
 62
8
 10
1358.226
 20
-8187.694
 30
388.255
 70
    32
  0
VERTEX
  8
T48SSILL
 62
8
 10
1367.154
 20
-8187.049
 30
388.336
 70
    32
  0
VERTEX
  8
T48SSILL
 62
8
 10
1387.339
 20
-8179.245
 30
388.364
 70
    32
  0
VERTEX
  8
T48SSILL
 62
8
 10
1429.828
 20
-8109.282
 30
388.566
 70
    32
  0
VERTEX
  8
T48SSILL
 62
8
 10
1435.951
 20
-8094.079
 30
388.617
 70
    32
  0
VERTEX
  8
T48SSILL
 62
8
 10
1441.326
 20
-8091.122
 30
388.617
 70
    32
  0
VERTEX
  8
T48SSILL
 62
8
 10
1442.682
 20
-8074.933
 30
388.683
 70
    32
  0
VERTEX
  8
T48SSILL
 62
8
 10
1432.806
 20
-8070.260
 30
388.726
 70
    32
  0
VERTEX
  8
T48SSILL
 62
8
 10
1426.033
 20
-8072.056
 30
388.733
 70
    32
  0
VERTEX
  8
T48SSILL
 62
8
 10
1423.123
 20
-8077.032
 30
388.719
 70
    32
  0
VERTEX
  8
T48SSILL
 62
8
 10
1417.289
 20
-8080.108
 30
388.719
 70
    32
  0
VERTEX
  8
T48SSILL
 62
8
 10
1410.848
 20
-8103.524
 30
388.634
 70
    32
  0
VERTEX
  8
T48SSILL
 62
8
 10
1376.439
 20
-8163.188
 30
388.457
 70
    32
  0
VERTEX
  8
T48SSILL
 62
8
 10
1363.828
 20
-8168.500
 30
388.430
 70
    32
  0
VERTEX
  8
T48SSILL
 62
8
 10
1354.013
 20
-8169.576
 30
388.339
 70
    32
  0
VERTEX
  8
T48SSILL
 62
8
 10
1352.056
 20
-8164.671
 30
388.355
 70
    32
  0
VERTEX
  8
T48SSILL
 62
8
 10
1348.393
 20
-8167.576
 30
388.304
 70
    32
  0
VERTEX
  8
T48SSILL
 62
8
 10
1345.151
 20
-8167.329
 30
388.278
 70
    32
  0
VERTEX
  8
T48SSILL
 62
8
 10
1342.947
 20
-8173.864
 30
388.216
 70
    32
  0
VERTEX
  8
T48SSILL
 62
8
 10
1303.532
 20
-8177.953
 30
387.851
 70
    32
  0
VERTEX
  8
T48SSILL
 62
8
 10
1310.764
 20
-8166.200
 30
387.991
 70
    32
  0
VERTEX
  8
T48SSILL
 62
8
 10
1312.295
 20
-8146.821
 30
388.132
 70
    32
  0
VERTEX
  8
T48SSILL
 62
8
 10
1304.457
 20
-8147.759
 30
388.059
 70
    32
  0
VERTEX
  8
T48SSILL
 62
8
 10
1296.092
 20
-8164.825
 30
387.874
 70
    32
  0
VERTEX
  8
T48SSILL
 62
8
 10
1287.959
 20
-8173.412
 30
387.747
 70
    32
  0
VERTEX
  8
T48SSILL
 62
8
 10
1247.226
 20
-8177.045
 30
387.374
 70
    32
  0
VERTEX
  8
T48SSILL
 62
8
 10
1238.548
 20
-8183.846
 30
387.255
 70
    32
  0
VERTEX
  8
T48SSILL
 62
8
 10
1174.412
 20
-8094.889
 30
387.295
 70
    32
  0
VERTEX
  8
T48SSILL
 62
8
 10
1177.052
 20
-8086.757
 30
387.372
 70
    32
  0
VERTEX
  8
T48SSILL
 62
8
 10
1180.622
 20
-8082.395
 30
387.431
 70
    32
  0
VERTEX
  8
T48SSILL
 62
8
 10
1175.462
 20
-8075.003
 30
387.436
 70
    32
  0
VERTEX
  8
T48SSILL
 62
8
 10
1167.564
 20
-8085.700
 30
387.297
 70
    32
  0
VERTEX
  8
T48SSILL
 62
8
 10
1152.290
 20
-8064.871
 30
387.304
 70
    32
  0
VERTEX
  8
T48SSILL
 62
8
 10
1146.002
 20
-8047.947
 30
387.363
 70
    32
  0
VERTEX
  8
T48SSILL
 62
8
 10
1147.433
 20
-8044.383
 30
387.399
 70
    32
  0
VERTEX
  8
T48SSILL
 62
8
 10
1139.203
 20
-8037.956
 30
387.371
 70
    32
  0
VERTEX
  8
T48SSILL
 62
8
 10
1134.259
 20
-8031.634
 30
387.370
 70
    32
  0
VERTEX
  8
T48SSILL
 62
8
 10
1128.823
 20
-8032.122
 30
387.321
 70
    32
  0
VERTEX
  8
T48SSILL
 62
8
 10
1114.352
 20
-8011.226
 30
387.335
 70
    32
  0
VERTEX
  8
T48SSILL
 62
8
 10
1115.165
 20
-8005.599
 30
387.379
 70
    32
  0
VERTEX
  8
T48SSILL
 62
8
 10
1112.869
 20
-7998.412
 30
387.407
 70
    32
  0
VERTEX
  8
T48SSILL
 62
8
 10
1102.092
 20
-7986.806
 30
387.392
 70
    32
  0
VERTEX
  8
T48SSILL
 62
8
 10
1091.037
 20
-7979.014
 30
387.349
 70
    32
  0
VERTEX
  8
T48SSILL
 62
8
 10
717.143
 20
-7458.041
 30
387.584
 70
    32
  0
VERTEX
  8
T48SSILL
 62
8
 10
732.141
 20
-7462.825
 30
387.615
 70
    32
  0
VERTEX
  8
T48SSILL
 62
8
 10
747.209
 20
-7463.069
 30
387.658
 70
    32
  0
VERTEX
  8
T48SSILL
 62
8
 10
755.872
 20
-7460.995
 30
387.688
 70
    32
  0
SEQEND
  8
T48SSILL
  0
POLYLINE
  8
R_SHAFTS_2
 62
8
 66
     1
 70
     9
  0
VERTEX
  8
R_SHAFTS_2
 62
8
 10
-478.481
 20
690.374
 30
4431.830
 70
    32
  0
VERTEX
  8
R_SHAFTS_2
 62
8
 10
-468.481
 20
690.374
 30
4431.830
 70
    32
  0
VERTEX
  8
R_SHAFTS_2
 62
8
 10
-468.481
 20
680.374
 30
4431.830
 70
    32
  0
VERTEX
  8
R_SHAFTS_2
 62
8
 10
-478.481
 20
680.374
 30
4431.830
 70
    32
  0
SEQEND
  8
R_SHAFTS_2
  0
POLYLINE
  8
R_SHAFTS_2
 62
8
 66
     1
 70
     9
  0
VERTEX
  8
R_SHAFTS_2
 62
8
 10
-3716.381
 20
1088.144
 30
5100.370
 70
    32
  0
VERTEX
  8
R_SHAFTS_2
 62
8
 10
-3706.381
 20
1088.144
 30
5100.370
 70
    32
  0
VERTEX
  8
R_SHAFTS_2
 62
8
 10
-3706.381
 20
1078.144
 30
5100.370
 70
    32
  0
VERTEX
  8
R_SHAFTS_2
 62
8
 10
-3716.381
 20
1078.144
 30
5100.370
 70
    32
  0
SEQEND
  8
R_SHAFTS_2
  0
POLYLINE
  8
R_SHAFTS_2
 62
8
 66
     1
 70
     9
  0
VERTEX
  8
R_SHAFTS_2
 62
8
 10
-700.881
 20
-374.686
 30
4127.920
 70
    32
  0
VERTEX
  8
R_SHAFTS_2
 62
8
 10
-690.881
 20
-374.686
 30
4127.920
 70
    32
  0
VERTEX
  8
R_SHAFTS_2
 62
8
 10
-690.881
 20
-384.686
 30
4127.920
 70
    32
  0
VERTEX
  8
R_SHAFTS_2
 62
8
 10
-700.881
 20
-384.686
 30
4127.920
 70
    32
  0
SEQEND
  8
R_SHAFTS_2
  0
POLYLINE
  8
R_SHAFTS_2
 62
8
 66
     1
 70
     9
  0
VERTEX
  8
R_SHAFTS_2
 62
8
 10
-3716.381
 20
1088.144
 30
4935.510
 70
    32
  0
VERTEX
  8
R_SHAFTS_2
 62
8
 10
-3706.381
 20
1088.144
 30
4935.510
 70
    32
  0
VERTEX
  8
R_SHAFTS_2
 62
8
 10
-3706.381
 20
1078.144
 30
4935.510
 70
    32
  0
VERTEX
  8
R_SHAFTS_2
 62
8
 10
-3716.381
 20
1078.144
 30
4935.510
 70
    32
  0
SEQEND
  8
R_SHAFTS_2
  0
LINE
  8
R_SHAFTS_2
 62
8
 10
-3711.340
 20
1078.144
 30
5100.370
 11
-3711.340
 21
1078.144
 31
4935.510
  0
POLYLINE
  8
R_SHAFTS_2
 62
8
 66
     1
 70
     9
  0
VERTEX
  8
R_SHAFTS_2
 62
8
 10
-2666.581
 20
3279.374
 30
5007.580
 70
    32
  0
VERTEX
  8
R_SHAFTS_2
 62
8
 10
-2656.581
 20
3279.374
 30
5007.580
 70
    32
  0
VERTEX
  8
R_SHAFTS_2
 62
8
 10
-2656.581
 20
3269.374
 30
5007.580
 70
    32
  0
VERTEX
  8
R_SHAFTS_2
 62
8
 10
-2666.581
 20
3269.374
 30
5007.580
 70
    32
  0
SEQEND
  8
R_SHAFTS_2
  0
POLYLINE
  8
R_SHAFTS_2
 62
8
 66
     1
 70
     9
  0
VERTEX
  8
R_SHAFTS_2
 62
8
 10
-1307.921
 20
2098.904
 30
5034.280
 70
    32
  0
VERTEX
  8
R_SHAFTS_2
 62
8
 10
-1297.921
 20
2098.904
 30
5034.280
 70
    32
  0
VERTEX
  8
R_SHAFTS_2
 62
8
 10
-1297.921
 20
2088.904
 30
5034.280
 70
    32
  0
VERTEX
  8
R_SHAFTS_2
 62
8
 10
-1307.921
 20
2088.904
 30
5034.280
 70
    32
  0
SEQEND
  8
R_SHAFTS_2
  0
POLYLINE
  8
R_SHAFTS_2
 62
8
 66
     1
 70
     9
  0
VERTEX
  8
R_SHAFTS_2
 62
8
 10
-2666.581
 20
3279.374
 30
4431.830
 70
    32
  0
VERTEX
  8
R_SHAFTS_2
 62
8
 10
-2656.581
 20
3279.374
 30
4431.830
 70
    32
  0
VERTEX
  8
R_SHAFTS_2
 62
8
 10
-2656.581
 20
3269.374
 30
4431.830
 70
    32
  0
VERTEX
  8
R_SHAFTS_2
 62
8
 10
-2666.581
 20
3269.374
 30
4431.830
 70
    32
  0
SEQEND
  8
R_SHAFTS_2
  0
POLYLINE
  8
R_SHAFTS_2
 62
8
 66
     1
 70
     9
  0
VERTEX
  8
R_SHAFTS_2
 62
8
 10
-1307.921
 20
2098.904
 30
4432.910
 70
    32
  0
VERTEX
  8
R_SHAFTS_2
 62
8
 10
-1297.921
 20
2098.904
 30
4432.910
 70
    32
  0
VERTEX
  8
R_SHAFTS_2
 62
8
 10
-1297.921
 20
2088.904
 30
4432.910
 70
    32
  0
VERTEX
  8
R_SHAFTS_2
 62
8
 10
-1307.921
 20
2088.904
 30
4432.910
 70
    32
  0
SEQEND
  8
R_SHAFTS_2
  0
LINE
  8
R_SHAFTS_2
 62
8
 10
-1297.921
 20
2088.904
 30
5034.280
 11
-1297.921
 21
2088.904
 31
4432.910
  0
LINE
  8
R_SHAFTS_2
 62
8
 10
-2656.581
 20
3269.374
 30
5007.580
 11
-2656.581
 21
3269.374
 31
4431.830
  0
POLYLINE
  8
R_SHAFTS_2
 62
8
 66
     1
 70
     9
  0
VERTEX
  8
R_SHAFTS_2
 62
8
 10
-478.481
 20
690.374
 30
5204.360
 70
    32
  0
VERTEX
  8
R_SHAFTS_2
 62
8
 10
-468.481
 20
690.374
 30
5204.360
 70
    32
  0
VERTEX
  8
R_SHAFTS_2
 62
8
 10
-468.481
 20
680.374
 30
5204.360
 70
    32
  0
VERTEX
  8
R_SHAFTS_2
 62
8
 10
-478.481
 20
680.374
 30
5204.360
 70
    32
  0
SEQEND
  8
R_SHAFTS_2
  0
POLYLINE
  8
R_SHAFTS_2
 62
8
 66
     1
 70
     9
  0
VERTEX
  8
R_SHAFTS_2
 62
8
 10
558.659
 20
-1379.056
 30
3525.000
 70
    32
  0
VERTEX
  8
R_SHAFTS_2
 62
8
 10
568.659
 20
-1379.056
 30
3525.000
 70
    32
  0
VERTEX
  8
R_SHAFTS_2
 62
8
 10
568.659
 20
-1389.056
 30
3525.000
 70
    32
  0
VERTEX
  8
R_SHAFTS_2
 62
8
 10
558.659
 20
-1389.056
 30
3525.000
 70
    32
  0
SEQEND
  8
R_SHAFTS_2
  0
POLYLINE
  8
R_SHAFTS_2
 62
8
 66
     1
 70
     9
  0
VERTEX
  8
R_SHAFTS_2
 62
8
 10
-700.881
 20
-374.686
 30
5382.190
 70
    32
  0
VERTEX
  8
R_SHAFTS_2
 62
8
 10
-690.881
 20
-374.686
 30
5382.190
 70
    32
  0
VERTEX
  8
R_SHAFTS_2
 62
8
 10
-690.881
 20
-384.686
 30
5382.190
 70
    32
  0
VERTEX
  8
R_SHAFTS_2
 62
8
 10
-700.881
 20
-384.686
 30
5382.190
 70
    32
  0
SEQEND
  8
R_SHAFTS_2
  0
POLYLINE
  8
R_SHAFTS_2
 62
8
 66
     1
 70
     9
  0
VERTEX
  8
R_SHAFTS_2
 62
8
 10
558.659
 20
-1379.056
 30
4920.300
 70
    32
  0
VERTEX
  8
R_SHAFTS_2
 62
8
 10
568.659
 20
-1379.056
 30
4920.300
 70
    32
  0
VERTEX
  8
R_SHAFTS_2
 62
8
 10
568.659
 20
-1389.056
 30
4920.300
 70
    32
  0
VERTEX
  8
R_SHAFTS_2
 62
8
 10
558.659
 20
-1389.056
 30
4920.300
 70
    32
  0
SEQEND
  8
R_SHAFTS_2
  0
POLYLINE
  8
R_SHAFTS_2
 62
8
 66
     1
 70
     9
  0
VERTEX
  8
R_SHAFTS_2
 62
8
 10
1147.989
 20
-1107.236
 30
5288.860
 70
    32
  0
VERTEX
  8
R_SHAFTS_2
 62
8
 10
1157.989
 20
-1107.236
 30
5288.860
 70
    32
  0
VERTEX
  8
R_SHAFTS_2
 62
8
 10
1157.989
 20
-1117.236
 30
5288.860
 70
    32
  0
VERTEX
  8
R_SHAFTS_2
 62
8
 10
1147.989
 20
-1117.236
 30
5288.860
 70
    32
  0
SEQEND
  8
R_SHAFTS_2
  0
POLYLINE
  8
R_SHAFTS_2
 62
8
 66
     1
 70
     9
  0
VERTEX
  8
R_SHAFTS_2
 62
8
 10
1686.099
 20
-794.496
 30
5312.340
 70
    32
  0
VERTEX
  8
R_SHAFTS_2
 62
8
 10
1696.099
 20
-794.496
 30
5312.340
 70
    32
  0
VERTEX
  8
R_SHAFTS_2
 62
8
 10
1696.099
 20
-804.496
 30
5312.340
 70
    32
  0
VERTEX
  8
R_SHAFTS_2
 62
8
 10
1686.099
 20
-804.496
 30
5312.340
 70
    32
  0
SEQEND
  8
R_SHAFTS_2
  0
POLYLINE
  8
R_SHAFTS_2
 62
8
 66
     1
 70
     9
  0
VERTEX
  8
R_SHAFTS_2
 62
8
 10
1335.159
 20
-2429.116
 30
5129.360
 70
    32
  0
VERTEX
  8
R_SHAFTS_2
 62
8
 10
1345.159
 20
-2429.116
 30
5129.360
 70
    32
  0
VERTEX
  8
R_SHAFTS_2
 62
8
 10
1345.159
 20
-2439.116
 30
5129.360
 70
    32
  0
VERTEX
  8
R_SHAFTS_2
 62
8
 10
1335.159
 20
-2439.116
 30
5129.360
 70
    32
  0
SEQEND
  8
R_SHAFTS_2
  0
POLYLINE
  8
R_SHAFTS_2
 62
8
 66
     1
 70
     9
  0
VERTEX
  8
R_SHAFTS_2
 62
8
 10
1901.149
 20
-2678.226
 30
5255.210
 70
    32
  0
VERTEX
  8
R_SHAFTS_2
 62
8
 10
1911.149
 20
-2678.226
 30
5255.210
 70
    32
  0
VERTEX
  8
R_SHAFTS_2
 62
8
 10
1911.149
 20
-2688.226
 30
5255.210
 70
    32
  0
VERTEX
  8
R_SHAFTS_2
 62
8
 10
1901.149
 20
-2688.226
 30
5255.210
 70
    32
  0
SEQEND
  8
R_SHAFTS_2
  0
POLYLINE
  8
R_SHAFTS_2
 62
8
 66
     1
 70
     9
  0
VERTEX
  8
R_SHAFTS_2
 62
8
 10
2860.979
 20
-3818.296
 30
3227.240
 70
    32
  0
VERTEX
  8
R_SHAFTS_2
 62
8
 10
2870.979
 20
-3818.296
 30
3227.240
 70
    32
  0
VERTEX
  8
R_SHAFTS_2
 62
8
 10
2870.979
 20
-3828.296
 30
3227.240
 70
    32
  0
VERTEX
  8
R_SHAFTS_2
 62
8
 10
2860.979
 20
-3828.296
 30
3227.240
 70
    32
  0
SEQEND
  8
R_SHAFTS_2
  0
POLYLINE
  8
R_SHAFTS_2
 62
8
 66
     1
 70
     9
  0
VERTEX
  8
R_SHAFTS_2
 62
8
 10
1915.569
 20
-5410.906
 30
5132.170
 70
    32
  0
VERTEX
  8
R_SHAFTS_2
 62
8
 10
1925.569
 20
-5410.906
 30
5132.170
 70
    32
  0
VERTEX
  8
R_SHAFTS_2
 62
8
 10
1925.569
 20
-5420.906
 30
5132.170
 70
    32
  0
VERTEX
  8
R_SHAFTS_2
 62
8
 10
1915.569
 20
-5420.906
 30
5132.170
 70
    32
  0
SEQEND
  8
R_SHAFTS_2
  0
POLYLINE
  8
R_SHAFTS_2
 62
8
 66
     1
 70
     9
  0
VERTEX
  8
R_SHAFTS_2
 62
8
 10
3476.969
 20
-5184.066
 30
4936.640
 70
    32
  0
VERTEX
  8
R_SHAFTS_2
 62
8
 10
3486.969
 20
-5184.066
 30
4936.640
 70
    32
  0
VERTEX
  8
R_SHAFTS_2
 62
8
 10
3486.969
 20
-5194.066
 30
4936.640
 70
    32
  0
VERTEX
  8
R_SHAFTS_2
 62
8
 10
3476.969
 20
-5194.066
 30
4936.640
 70
    32
  0
SEQEND
  8
R_SHAFTS_2
  0
POLYLINE
  8
R_SHAFTS_2
 62
8
 66
     1
 70
     9
  0
VERTEX
  8
R_SHAFTS_2
 62
8
 10
2007.309
 20
-6365.696
 30
-1540.860
 70
    32
  0
VERTEX
  8
R_SHAFTS_2
 62
8
 10
2017.309
 20
-6365.696
 30
-1540.860
 70
    32
  0
VERTEX
  8
R_SHAFTS_2
 62
8
 10
2017.309
 20
-6375.696
 30
-1540.860
 70
    32
  0
VERTEX
  8
R_SHAFTS_2
 62
8
 10
2007.309
 20
-6375.696
 30
-1540.860
 70
    32
  0
SEQEND
  8
R_SHAFTS_2
  0
POLYLINE
  8
R_SHAFTS_2
 62
8
 66
     1
 70
     9
  0
VERTEX
  8
R_SHAFTS_2
 62
8
 10
5879.549
 20
-8636.476
 30
5137.000
 70
    32
  0
VERTEX
  8
R_SHAFTS_2
 62
8
 10
5889.549
 20
-8636.476
 30
5137.000
 70
    32
  0
VERTEX
  8
R_SHAFTS_2
 62
8
 10
5889.549
 20
-8646.476
 30
5137.000
 70
    32
  0
VERTEX
  8
R_SHAFTS_2
 62
8
 10
5879.549
 20
-8646.476
 30
5137.000
 70
    32
  0
SEQEND
  8
R_SHAFTS_2
  0
POLYLINE
  8
R_SHAFTS_2
 62
8
 66
     1
 70
     9
  0
VERTEX
  8
R_SHAFTS_2
 62
8
 10
1147.989
 20
-1107.236
 30
3522.340
 70
    32
  0
VERTEX
  8
R_SHAFTS_2
 62
8
 10
1157.989
 20
-1107.236
 30
3522.340
 70
    32
  0
VERTEX
  8
R_SHAFTS_2
 62
8
 10
1157.989
 20
-1117.236
 30
3522.340
 70
    32
  0
VERTEX
  8
R_SHAFTS_2
 62
8
 10
1147.989
 20
-1117.236
 30
3522.340
 70
    32
  0
SEQEND
  8
R_SHAFTS_2
  0
POLYLINE
  8
R_SHAFTS_2
 62
8
 66
     1
 70
     9
  0
VERTEX
  8
R_SHAFTS_2
 62
8
 10
1686.099
 20
-794.496
 30
3674.640
 70
    32
  0
VERTEX
  8
R_SHAFTS_2
 62
8
 10
1696.099
 20
-794.496
 30
3674.640
 70
    32
  0
VERTEX
  8
R_SHAFTS_2
 62
8
 10
1696.099
 20
-804.496
 30
3674.640
 70
    32
  0
VERTEX
  8
R_SHAFTS_2
 62
8
 10
1686.099
 20
-804.496
 30
3674.640
 70
    32
  0
SEQEND
  8
R_SHAFTS_2
  0
POLYLINE
  8
R_SHAFTS_2
 62
8
 66
     1
 70
     9
  0
VERTEX
  8
R_SHAFTS_2
 62
8
 10
1335.159
 20
-2429.116
 30
4927.100
 70
    32
  0
VERTEX
  8
R_SHAFTS_2
 62
8
 10
1345.159
 20
-2429.116
 30
4927.100
 70
    32
  0
VERTEX
  8
R_SHAFTS_2
 62
8
 10
1345.159
 20
-2439.116
 30
4927.100
 70
    32
  0
VERTEX
  8
R_SHAFTS_2
 62
8
 10
1335.159
 20
-2439.116
 30
4927.100
 70
    32
  0
SEQEND
  8
R_SHAFTS_2
  0
POLYLINE
  8
R_SHAFTS_2
 62
8
 66
     1
 70
     9
  0
VERTEX
  8
R_SHAFTS_2
 62
8
 10
1901.149
 20
-2678.226
 30
2022.470
 70
    32
  0
VERTEX
  8
R_SHAFTS_2
 62
8
 10
1911.149
 20
-2678.226
 30
2022.470
 70
    32
  0
VERTEX
  8
R_SHAFTS_2
 62
8
 10
1911.149
 20
-2688.226
 30
2022.470
 70
    32
  0
VERTEX
  8
R_SHAFTS_2
 62
8
 10
1901.149
 20
-2688.226
 30
2022.470
 70
    32
  0
SEQEND
  8
R_SHAFTS_2
  0
POLYLINE
  8
R_SHAFTS_2
 62
8
 66
     1
 70
     9
  0
VERTEX
  8
R_SHAFTS_2
 62
8
 10
2860.979
 20
-3818.296
 30
1722.490
 70
    32
  0
VERTEX
  8
R_SHAFTS_2
 62
8
 10
2870.979
 20
-3818.296
 30
1722.490
 70
    32
  0
VERTEX
  8
R_SHAFTS_2
 62
8
 10
2870.979
 20
-3828.296
 30
1722.490
 70
    32
  0
VERTEX
  8
R_SHAFTS_2
 62
8
 10
2860.979
 20
-3828.296
 30
1722.490
 70
    32
  0
SEQEND
  8
R_SHAFTS_2
  0
POLYLINE
  8
R_SHAFTS_2
 62
8
 66
     1
 70
     9
  0
VERTEX
  8
R_SHAFTS_2
 62
8
 10
3476.969
 20
-5184.066
 30
1123.440
 70
    32
  0
VERTEX
  8
R_SHAFTS_2
 62
8
 10
3486.969
 20
-5184.066
 30
1123.440
 70
    32
  0
VERTEX
  8
R_SHAFTS_2
 62
8
 10
3486.969
 20
-5194.066
 30
1123.440
 70
    32
  0
VERTEX
  8
R_SHAFTS_2
 62
8
 10
3476.969
 20
-5194.066
 30
1123.440
 70
    32
  0
SEQEND
  8
R_SHAFTS_2
  0
POLYLINE
  8
R_SHAFTS_2
 62
8
 66
     1
 70
     9
  0
VERTEX
  8
R_SHAFTS_2
 62
8
 10
1915.569
 20
-5410.906
 30
4430.130
 70
    32
  0
VERTEX
  8
R_SHAFTS_2
 62
8
 10
1925.569
 20
-5410.906
 30
4430.130
 70
    32
  0
VERTEX
  8
R_SHAFTS_2
 62
8
 10
1925.569
 20
-5420.906
 30
4430.130
 70
    32
  0
VERTEX
  8
R_SHAFTS_2
 62
8
 10
1915.569
 20
-5420.906
 30
4430.130
 70
    32
  0
SEQEND
  8
R_SHAFTS_2
  0
POLYLINE
  8
R_SHAFTS_2
 62
8
 66
     1
 70
     9
  0
VERTEX
  8
R_SHAFTS_2
 62
8
 10
2007.309
 20
-6365.696
 30
-2727.190
 70
    32
  0
VERTEX
  8
R_SHAFTS_2
 62
8
 10
2017.309
 20
-6365.696
 30
-2727.190
 70
    32
  0
VERTEX
  8
R_SHAFTS_2
 62
8
 10
2017.309
 20
-6375.696
 30
-2727.190
 70
    32
  0
VERTEX
  8
R_SHAFTS_2
 62
8
 10
2007.309
 20
-6375.696
 30
-2727.190
 70
    32
  0
SEQEND
  8
R_SHAFTS_2
  0
POLYLINE
  8
R_SHAFTS_2
 62
8
 66
     1
 70
     9
  0
VERTEX
  8
R_SHAFTS_2
 62
8
 10
5879.549
 20
-8636.476
 30
-1571.540
 70
    32
  0
VERTEX
  8
R_SHAFTS_2
 62
8
 10
5889.549
 20
-8636.476
 30
-1571.540
 70
    32
  0
VERTEX
  8
R_SHAFTS_2
 62
8
 10
5889.549
 20
-8646.476
 30
-1571.540
 70
    32
  0
VERTEX
  8
R_SHAFTS_2
 62
8
 10
5879.549
 20
-8646.476
 30
-1571.540
 70
    32
  0
SEQEND
  8
R_SHAFTS_2
  0
LINE
  8
R_SHAFTS_2
 62
8
 10
-468.481
 20
680.374
 30
5204.360
 11
-468.481
 21
680.374
 31
4431.830
  0
LINE
  8
R_SHAFTS_2
 62
8
 10
-700.881
 20
-374.686
 30
5382.190
 11
-700.881
 21
-384.686
 31
4127.920
  0
LINE
  8
R_SHAFTS_2
 62
8
 10
558.659
 20
-1389.056
 30
4920.300
 11
558.659
 21
-1389.056
 31
3525.000
  0
LINE
  8
R_SHAFTS_2
 62
8
 10
1147.989
 20
-1107.236
 30
5288.860
 11
1147.989
 21
-1117.236
 31
3522.340
  0
LINE
  8
R_SHAFTS_2
 62
8
 10
1686.099
 20
-794.496
 30
5312.340
 11
1686.099
 21
-804.496
 31
3674.640
  0
LINE
  8
R_SHAFTS_2
 62
8
 10
1335.159
 20
-2439.116
 30
5129.360
 11
1335.159
 21
-2439.116
 31
4927.100
  0
LINE
  8
R_SHAFTS_2
 62
8
 10
1901.149
 20
-2678.226
 30
5255.210
 11
1901.149
 21
-2678.226
 31
2022.470
  0
LINE
  8
R_SHAFTS_2
 62
8
 10
2860.979
 20
-3828.296
 30
3227.240
 11
2860.979
 21
-3818.296
 31
1722.490
  0
LINE
  8
R_SHAFTS_2
 62
8
 10
1915.569
 20
-5410.906
 30
5132.170
 11
1915.569
 21
-5410.906
 31
4430.130
  0
LINE
  8
R_SHAFTS_2
 62
8
 10
3476.969
 20
-5194.066
 30
4936.640
 11
3476.969
 21
-5189.066
 31
1123.440
  0
LINE
  8
R_SHAFTS_2
 62
8
 10
2007.309
 20
-6365.696
 30
-1540.860
 11
2007.309
 21
-6365.696
 31
-2727.190
  0
POLYLINE
  8
R_SHAFTS_2
 62
8
 66
     1
 70
     9
  0
VERTEX
  8
R_SHAFTS_2
 62
8
 10
1686.099
 20
-794.496
 30
5312.340
 70
    32
  0
VERTEX
  8
R_SHAFTS_2
 62
8
 10
1696.099
 20
-794.496
 30
5312.340
 70
    32
  0
VERTEX
  8
R_SHAFTS_2
 62
8
 10
1696.099
 20
-804.496
 30
5312.340
 70
    32
  0
VERTEX
  8
R_SHAFTS_2
 62
8
 10
1686.099
 20
-794.909
 30
5244.801
 70
    32
  0
SEQEND
  8
R_SHAFTS_2
  0
POLYLINE
  8
R_SHAFTS_2
 62
8
 66
     1
 70
     9
  0
VERTEX
  8
R_SHAFTS_2
 62
8
 10
4834.380
 20
-6367.750
 30
1126.470
 70
    32
  0
VERTEX
  8
R_SHAFTS_2
 62
8
 10
4844.380
 20
-6367.750
 30
1126.470
 70
    32
  0
VERTEX
  8
R_SHAFTS_2
 62
8
 10
4844.380
 20
-6377.750
 30
1126.470
 70
    32
  0
VERTEX
  8
R_SHAFTS_2
 62
8
 10
4834.380
 20
-6377.750
 30
1126.470
 70
    32
  0
SEQEND
  8
R_SHAFTS_2
  0
POLYLINE
  8
R_SHAFTS_2
 62
8
 66
     1
 70
     9
  0
VERTEX
  8
R_SHAFTS_2
 62
8
 10
4834.380
 20
-6367.750
 30
226.130
 70
    32
  0
VERTEX
  8
R_SHAFTS_2
 62
8
 10
4844.380
 20
-6367.750
 30
226.130
 70
    32
  0
VERTEX
  8
R_SHAFTS_2
 62
8
 10
4844.380
 20
-6377.750
 30
226.130
 70
    32
  0
VERTEX
  8
R_SHAFTS_2
 62
8
 10
4834.380
 20
-6377.750
 30
226.130
 70
    32
  0
SEQEND
  8
R_SHAFTS_2
  0
LINE
  8
R_SHAFTS_2
 62
8
 10
4834.380
 20
-6377.750
 30
1126.470
 11
4834.380
 21
-6377.750
 31
226.130
  0
LINE
  8
R_SHAFTS_2
 62
8
 10
5879.549
 20
-8636.476
 30
5137.000
 11
5879.549
 21
-8636.476
 31
-1571.540
  0
TEXT
  8
R_SHAFTS_2
 62
1
 10
-3686.775
 20
1100.846
 30
5023.474
 40
0.100
  1
HIDDEN FORTUNE
 50
90.000
 41
 1.0 
  0
TEXT
  8
R_SHAFTS_2
 62
1
 10
-2646.317
 20
3286.313
 30
4684.308
 40
0.100
  1
COLUMBUS
 50
90.000
 41
 1.0 
  0
TEXT
  8
R_SHAFTS_2
 62
1
 10
-1289.325
 20
2104.285
 30
4718.055
 40
0.100
  1
GOLDEN GATE
 50
90.000
 41
 1.0 
  0
TEXT
  8
R_SHAFTS_2
 62
1
 10
-437.381
 20
657.720
 30
4801.051
 40
0.100
  1
OLD BRIG
 50
90.000
 41
 1.0 
  0
TEXT
  8
R_SHAFTS_2
 62
1
 10
-684.973
 20
-360.193
 30
4697.205
 40
0.100
  1
HIGHLAND
 50
90.000
 41
 1.0 
  0
TEXT
  8
R_SHAFTS_2
 62
1
 10
589.116
 20
-1391.339
 30
4229.343
 40
0.100
  1
STAR
 50
90.000
 41
 1.0 
  0
TEXT
  8
R_SHAFTS_2
 62
1
 10
1177.126
 20
-1114.364
 30
4440.533
 40
0.100
  1
B&M
 50
90.000
 41
 1.0 
  0
TEXT
  8
R_SHAFTS_2
 62
1
 10
1359.568
 20
-2445.945
 30
5021.168
 40
0.100
  1
PIERCE
 50
90.000
 41
 1.0 
  0
TEXT
  8
R_SHAFTS_2
 62
1
 10
1926.495
 20
-2678.590
 30
3469.752
 40
0.100
  1
ELLISON
 50
90.000
 41
 1.0 
  0
TEXT
  8
R_SHAFTS_2
 62
1
 10
2927.776
 20
-3877.189
 30
2456.247
 40
0.100
  1
MILLIKEN
 50
90.000
 41
 1.0 
  0
TEXT
  8
R_SHAFTS_2
 62
1
 10
1949.046
 20
-5433.893
 30
4750.731
 40
0.100
  1
MILNARICH
 50
90.000
 41
 1.0 
  0
TEXT
  8
R_SHAFTS_2
 62
1
 10
3551.182
 20
-5227.224
 30
2980.752
 40
0.100
  1
ORO HONDO
 50
90.000
 41
 1.0 
  0
TEXT
  8
R_SHAFTS_2
 62
1
 10
2017.349
 20
-6357.658
 30
-2173.886
 40
0.100
  1
7 SHAFT
 50
90.000
 41
 1.0 
  0
TEXT
  8
R_SHAFTS_2
 62
1
 10
5906.133
 20
-8623.541
 30
2312.731
 40
0.100
  1
5 SHAFT
 50
90.000
 41
 1.0 
  0
TEXT
  8
R_SHAFTS_2
 62
1
 10
1697.299
 20
-799.316
 30
4453.134
 40
0.100
  1
B&M#2
 50
90.000
 41
 1.0 
  0
TEXT
  8
R_SHAFTS_2
 62
1
 10
4839.607
 20
-6346.803
 30
607.064
 40
0.100
  1
3 WINZE
 50
90.000
 41
 1.0 
  0
TEXT
  8
R_SHAFTS_2
 62
1
 10
2168.342
 20
-2426.315
 30
4107.000
 40
0.100
  1
#2 AIR RAISE - APPROX LOCATION
 50
90.000
 41
 1.0 
  0
POLYLINE
  8
R_SHAFTS_1
 62
6
 66
     1
 70
     9
  0
VERTEX
  8
R_SHAFTS_1
 62
6
 10
2130.839
 20
-4604.504
 30
5355.000
 70
    32
  0
VERTEX
  8
R_SHAFTS_1
 62
6
 10
2138.228
 20
-4604.504
 30
5355.000
 70
    32
  0
VERTEX
  8
R_SHAFTS_1
 62
6
 10
2137.839
 20
-4627.259
 30
5355.000
 70
    32
  0
VERTEX
  8
R_SHAFTS_1
 62
6
 10
2130.256
 20
-4627.259
 30
5355.000
 70
    32
  0
SEQEND
  8
R_SHAFTS_1
  0
POLYLINE
  8
R_SHAFTS_1
 62
6
 66
     1
 70
     9
  0
VERTEX
  8
R_SHAFTS_1
 62
6
 10
3992.817
 20
-2531.732
 30
5310.000
 70
    32
  0
VERTEX
  8
R_SHAFTS_1
 62
6
 10
3985.496
 20
-2520.607
 30
5310.000
 70
    32
  0
VERTEX
  8
R_SHAFTS_1
 62
6
 10
3988.791
 20
-2518.406
 30
5310.000
 70
    32
  0
VERTEX
  8
R_SHAFTS_1
 62
6
 10
3996.112
 20
-2529.409
 30
5310.000
 70
    32
  0
SEQEND
  8
R_SHAFTS_1
  0
POLYLINE
  8
R_SHAFTS_1
 62
6
 66
     1
 70
     9
  0
VERTEX
  8
R_SHAFTS_1
 62
6
 10
5884.445
 20
-8451.304
 30
527.000
 70
    32
  0
VERTEX
  8
R_SHAFTS_1
 62
6
 10
5875.030
 20
-8437.336
 30
527.000
 70
    32
  0
VERTEX
  8
R_SHAFTS_1
 62
6
 10
5881.621
 20
-8433.372
 30
527.000
 70
    32
  0
VERTEX
  8
R_SHAFTS_1
 62
6
 10
5891.035
 20
-8446.774
 30
527.000
 70
    32
  0
SEQEND
  8
R_SHAFTS_1
  0
POLYLINE
  8
R_SHAFTS_1
 62
6
 66
     1
 70
     9
  0
VERTEX
  8
R_SHAFTS_1
 62
6
 10
2150.594
 20
-4783.658
 30
699.000
 70
    32
  0
VERTEX
  8
R_SHAFTS_1
 62
6
 10
2156.312
 20
-4785.505
 30
699.000
 70
    32
  0
VERTEX
  8
R_SHAFTS_1
 62
6
 10
2151.332
 20
-4804.349
 30
699.000
 70
    32
  0
VERTEX
  8
R_SHAFTS_1
 62
6
 10
2144.692
 20
-4802.316
 30
699.000
 70
    32
  0
SEQEND
  8
R_SHAFTS_1
  0
POLYLINE
  8
R_SHAFTS_1
 62
6
 66
     1
 70
     9
  0
VERTEX
  8
R_SHAFTS_1
 62
6
 10
3992.817
 20
-2531.732
 30
376.000
 70
    32
  0
VERTEX
  8
R_SHAFTS_1
 62
6
 10
3985.496
 20
-2520.607
 30
376.000
 70
    32
  0
VERTEX
  8
R_SHAFTS_1
 62
6
 10
3988.791
 20
-2518.406
 30
376.000
 70
    32
  0
VERTEX
  8
R_SHAFTS_1
 62
6
 10
3996.112
 20
-2529.409
 30
376.000
 70
    32
  0
SEQEND
  8
R_SHAFTS_1
  0
POLYLINE
  8
R_SHAFTS_1
 62
6
 66
     1
 70
     9
  0
VERTEX
  8
R_SHAFTS_1
 62
6
 10
5884.445
 20
-8451.304
 30
-2314.000
 70
    32
  0
VERTEX
  8
R_SHAFTS_1
 62
6
 10
5875.030
 20
-8437.336
 30
-2314.000
 70
    32
  0
VERTEX
  8
R_SHAFTS_1
 62
6
 10
5881.621
 20
-8433.372
 30
-2314.000
 70
    32
  0
VERTEX
  8
R_SHAFTS_1
 62
6
 10
5891.035
 20
-8446.774
 30
-2314.000
 70
    32
  0
SEQEND
  8
R_SHAFTS_1
  0
POLYLINE
  8
R_SHAFTS_1
 62
6
 66
     1
 70
     9
  0
VERTEX
  8
R_SHAFTS_1
 62
6
 10
2130.839
 20
-4604.504
 30
228.000
 70
    32
  0
VERTEX
  8
R_SHAFTS_1
 62
6
 10
2138.228
 20
-4604.504
 30
228.000
 70
    32
  0
VERTEX
  8
R_SHAFTS_1
 62
6
 10
2137.839
 20
-4627.259
 30
228.000
 70
    32
  0
VERTEX
  8
R_SHAFTS_1
 62
6
 10
2130.256
 20
-4627.259
 30
228.000
 70
    32
  0
SEQEND
  8
R_SHAFTS_1
  0
POLYLINE
  8
R_SHAFTS_1
 62
6
 66
     1
 70
     9
  0
VERTEX
  8
R_SHAFTS_1
 62
6
 10
2150.594
 20
-4783.658
 30
-2960.000
 70
    32
  0
VERTEX
  8
R_SHAFTS_1
 62
6
 10
2156.312
 20
-4785.505
 30
-2960.000
 70
    32
  0
VERTEX
  8
R_SHAFTS_1
 62
6
 10
2151.332
 20
-4804.349
 30
-2960.000
 70
    32
  0
VERTEX
  8
R_SHAFTS_1
 62
6
 10
2144.692
 20
-4802.316
 30
-2960.000
 70
    32
  0
SEQEND
  8
R_SHAFTS_1
  0
LINE
  8
R_SHAFTS_1
 62
13
 10
5887.740
 20
-8449.039
 30
527.000
 11
5887.740
 21
-8449.039
 31
-2314.000
  0
LINE
  8
R_SHAFTS_1
 62
13
 10
2147.643
 20
-4792.987
 30
699.000
 11
2147.643
 21
-4792.987
 31
-2960.000
  0
LINE
  8
R_SHAFTS_1
 62
13
 10
2130.547
 20
-4615.882
 30
5355.000
 11
2130.547
 21
-4615.882
 31
228.000
  0
LINE
  8
R_SHAFTS_1
 62
13
 10
3994.465
 20
-2530.570
 30
5310.000
 11
3994.465
 21
-2530.570
 31
376.000
  0
TEXT
  8
R_SHAFTS_1
 62
1
 10
2169.321
 20
-4771.133
 30
-958.959
 40
4.101
  1
6-SHAFT
 41
 1.0 
  0
TEXT
  8
R_SHAFTS_1
 62
1
 10
2153.751
 20
-4589.779
 30
2937.728
 40
4.101
  1
ROSS
 50
88.532
 41
 1.0 
  0
TEXT
  8
R_SHAFTS_1
 62
1
 10
4010.258
 20
-2505.121
 30
2898.139
 40
4.101
  1
YATES
 41
 1.0 
  0
TEXT
  8
R_SHAFTS_1
 62
1
 10
5881.528
 20
-8420.618
 30
-792.374
 40
4.101
  1
4-WINZE
 41
 1.0 
  0
POLYLINE
  8
R_SHAFTS_2
 62
8
 66
     1
 70
     9
  0
VERTEX
  8
R_SHAFTS_2
 62
8
 10
2155.394
 20
-2254.383
 30
5168.000
 70
    32
  0
VERTEX
  8
R_SHAFTS_2
 62
8
 10
2165.394
 20
-2254.383
 30
5168.000
 70
    32
  0
VERTEX
  8
R_SHAFTS_2
 62
8
 10
2165.394
 20
-2264.383
 30
5168.000
 70
    32
  0
VERTEX
  8
R_SHAFTS_2
 62
8
 10
2155.394
 20
-2264.383
 30
5168.000
 70
    32
  0
SEQEND
  8
R_SHAFTS_2
  0
POLYLINE
  8
R_SHAFTS_2
 62
8
 66
     1
 70
     9
  0
VERTEX
  8
R_SHAFTS_2
 62
8
 10
2085.394
 20
-2580.538
 30
3976.000
 70
    32
  0
VERTEX
  8
R_SHAFTS_2
 62
8
 10
2095.394
 20
-2580.538
 30
3976.000
 70
    32
  0
VERTEX
  8
R_SHAFTS_2
 62
8
 10
2095.394
 20
-2590.538
 30
3976.000
 70
    32
  0
VERTEX
  8
R_SHAFTS_2
 62
8
 10
2085.394
 20
-2590.538
 30
3976.000
 70
    32
  0
SEQEND
  8
R_SHAFTS_2
  0
POLYLINE
  8
R_SHAFTS_2
 62
8
 66
     1
 70
     9
  0
VERTEX
  8
R_SHAFTS_2
 62
8
 10
2079.242
 20
-2673.793
 30
3074.000
 70
    32
  0
VERTEX
  8
R_SHAFTS_2
 62
8
 10
2089.242
 20
-2673.793
 30
3074.000
 70
    32
  0
VERTEX
  8
R_SHAFTS_2
 62
8
 10
2089.242
 20
-2683.793
 30
3074.000
 70
    32
  0
VERTEX
  8
R_SHAFTS_2
 62
8
 10
2079.242
 20
-2683.793
 30
3074.000
 70
    32
  0
SEQEND
  8
R_SHAFTS_2
  0
POLYLINE
  8
R_SHAFTS_2
 62
8
 66
     1
 70
     8
  0
VERTEX
  8
R_SHAFTS_2
 62
8
 10
2160.000
 20
-2260.000
 30
5168.000
 70
    32
  0
VERTEX
  8
R_SHAFTS_2
 62
8
 10
2090.000
 20
-2585.000
 30
3976.000
 70
    32
  0
VERTEX
  8
R_SHAFTS_2
 62
8
 10
2085.000
 20
-2680.000
 30
3074.000
 70
    32
  0
SEQEND
  8
R_SHAFTS_2
  0
ENDSEC
  0
EOF
