999
********************************
999
*   DXF File - Entities Only   *
999
*        3D Data Format        *
999
*     Output from ENVISAGE     *
999
*     18-Nov-2006 13:06:21     *
999
********************************
  0
SECTION 
  2
HEADER
  9
$ACADVER
  1
AC1009
  9
$EXTMIN
 10
-290000.000
 20
-250000.000
 30
-4000.000
  9
$EXTMAX
 10
320000.000
 20
160000.000
 30
6000.000
  0
ENDSEC
  0
SECTION
  2
ENTITIES
  0
LINE
  8
1000SCALE
 62
1
 10
-1031.834
 20
-9943.797
 30
1000.000
 11
-35.369
 21
-9943.797
 31
1000.000
  0
POLYLINE
  8
T59SSILL
 62
3
 66
     1
 70
     9
  0
VERTEX
  8
T59SSILL
 62
3
 10
6736.983
 20
-8137.110
 30
-658.511
 70
    32
  0
VERTEX
  8
T59SSILL
 62
3
 10
6733.170
 20
-8131.167
 30
-658.498
 70
    32
  0
SEQEND
  8
T59SSILL
  0
POLYLINE
  8
T59SSILL
 62
3
 66
     1
 70
     9
  0
VERTEX
  8
T59SSILL
 62
3
 10
6733.170
 20
-8131.167
 30
-658.498
 70
    32
  0
VERTEX
  8
T59SSILL
 62
3
 10
6742.788
 20
-8124.757
 30
-658.498
 70
    32
  0
SEQEND
  8
T59SSILL
  0
POLYLINE
  8
T59SSILL
 62
3
 66
     1
 70
     9
  0
VERTEX
  8
T59SSILL
 62
3
 10
6742.788
 20
-8124.757
 30
-658.498
 70
    32
  0
VERTEX
  8
T59SSILL
 62
3
 10
6746.354
 20
-8130.335
 30
-658.510
 70
    32
  0
SEQEND
  8
T59SSILL
  0
POLYLINE
  8
T59SSILL
 62
3
 66
     1
 70
     9
  0
VERTEX
  8
T59SSILL
 62
3
 10
6525.619
 20
-8406.069
 30
-659.844
 70
    32
  0
VERTEX
  8
T59SSILL
 62
3
 10
6525.647
 20
-8406.099
 30
-659.845
 70
    32
  0
SEQEND
  8
T59SSILL
  0
POLYLINE
  8
T59SSILL
 62
3
 66
     1
 70
     9
  0
VERTEX
  8
T59SSILL
 62
3
 10
6738.163
 20
-8127.840
 30
-658.498
 70
    32
  0
VERTEX
  8
T59SSILL
 62
3
 10
6741.737
 20
-8133.673
 30
-658.510
 70
    32
  0
SEQEND
  8
T59SSILL
  0
POLYLINE
  8
T59SSILL
 62
3
 66
     1
 70
     9
  0
VERTEX
  8
T59SSILL
 62
3
 10
3652.598
 20
-8538.863
 30
-658.068
 70
    32
  0
VERTEX
  8
T59SSILL
 62
3
 10
3657.907
 20
-8537.338
 30
-658.064
 70
    32
  0
VERTEX
  8
T59SSILL
 62
3
 10
3664.030
 20
-8539.677
 30
-658.083
 70
    32
  0
VERTEX
  8
T59SSILL
 62
3
 10
3672.677
 20
-8571.886
 30
-658.277
 70
    32
  0
VERTEX
  8
T59SSILL
 62
3
 10
3669.214
 20
-8573.715
 30
-658.285
 70
    32
  0
VERTEX
  8
T59SSILL
 62
3
 10
3641.932
 20
-8535.331
 30
-658.039
 70
    32
  0
VERTEX
  8
T59SSILL
 62
3
 10
3645.639
 20
-8532.784
 30
-658.027
 70
    32
  0
SEQEND
  8
T59SSILL
  0
POLYLINE
  8
T59SSILL
 62
3
 66
     1
 70
     9
  0
VERTEX
  8
T59SSILL
 62
3
 10
6793.109
 20
-7981.024
 30
-658.339
 70
    32
  0
VERTEX
  8
T59SSILL
 62
3
 10
6784.124
 20
-7982.929
 30
-658.333
 70
    32
  0
SEQEND
  8
T59SSILL
  0
POLYLINE
  8
T59SSILL
 62
3
 66
     1
 70
     9
  0
VERTEX
  8
T59SSILL
 62
3
 10
1219.043
 20
-8105.031
 30
-656.627
 70
    32
  0
VERTEX
  8
T59SSILL
 62
3
 10
1220.730
 20
-8105.562
 30
-656.632
 70
    32
  0
SEQEND
  8
T59SSILL
  0
POLYLINE
  8
T59SSILL
 62
3
 66
     1
 70
     9
  0
VERTEX
  8
T59SSILL
 62
3
 10
1101.042
 20
-7084.887
 30
-654.314
 70
    32
  0
VERTEX
  8
T59SSILL
 62
3
 10
1100.676
 20
-7085.125
 30
-654.316
 70
    32
  0
SEQEND
  8
T59SSILL
  0
POLYLINE
  8
T59SSILL
 62
3
 66
     1
 70
     9
  0
VERTEX
  8
T59SSILL
 62
3
 10
1100.676
 20
-7085.125
 30
-654.316
 70
    32
  0
VERTEX
  8
T59SSILL
 62
3
 10
1100.672
 20
-7085.118
 30
-654.316
 70
    32
  0
SEQEND
  8
T59SSILL
  0
POLYLINE
  8
T59SSILL
 62
3
 66
     1
 70
     9
  0
VERTEX
  8
T59SSILL
 62
3
 10
6776.991
 20
-8528.547
 30
-660.850
 70
    32
  0
VERTEX
  8
T59SSILL
 62
3
 10
6785.008
 20
-8517.643
 30
-660.793
 70
    32
  0
VERTEX
  8
T59SSILL
 62
3
 10
6800.836
 20
-8504.639
 30
-660.714
 70
    32
  0
VERTEX
  8
T59SSILL
 62
3
 10
6812.670
 20
-8498.736
 30
-660.670
 70
    32
  0
VERTEX
  8
T59SSILL
 62
3
 10
6815.503
 20
-8507.630
 30
-660.700
 70
    32
  0
VERTEX
  8
T59SSILL
 62
3
 10
6813.079
 20
-8521.076
 30
-660.757
 70
    32
  0
VERTEX
  8
T59SSILL
 62
3
 10
6807.345
 20
-8530.155
 30
-660.803
 70
    32
  0
VERTEX
  8
T59SSILL
 62
3
 10
6778.331
 20
-8549.444
 30
-660.930
 70
    32
  0
VERTEX
  8
T59SSILL
 62
3
 10
6772.521
 20
-8539.857
 30
-660.902
 70
    32
  0
SEQEND
  8
T59SSILL
  0
POLYLINE
  8
T59SSILL
 62
3
 66
     1
 70
     9
  0
VERTEX
  8
T59SSILL
 62
3
 10
6480.114
 20
-8325.846
 30
-659.304
 70
    32
  0
VERTEX
  8
T59SSILL
 62
3
 10
6490.512
 20
-8322.318
 30
-659.293
 70
    32
  0
VERTEX
  8
T59SSILL
 62
3
 10
6637.807
 20
-8217.090
 30
-658.804
 70
    32
  0
VERTEX
  8
T59SSILL
 62
3
 10
6648.967
 20
-8213.899
 30
-658.796
 70
    32
  0
VERTEX
  8
T59SSILL
 62
3
 10
6656.701
 20
-8213.988
 30
-658.805
 70
    32
  0
VERTEX
  8
T59SSILL
 62
3
 10
6666.864
 20
-8218.293
 30
-658.842
 70
    32
  0
VERTEX
  8
T59SSILL
 62
3
 10
6671.815
 20
-8222.612
 30
-658.874
 70
    32
  0
VERTEX
  8
T59SSILL
 62
3
 10
6779.144
 20
-8431.683
 30
-660.466
 70
    32
  0
VERTEX
  8
T59SSILL
 62
3
 10
6780.233
 20
-8436.594
 30
-660.484
 70
    32
  0
VERTEX
  8
T59SSILL
 62
3
 10
6772.554
 20
-8443.821
 30
-660.525
 70
    32
  0
VERTEX
  8
T59SSILL
 62
3
 10
6755.421
 20
-8453.298
 30
-660.557
 70
    32
  0
VERTEX
  8
T59SSILL
 62
3
 10
6754.521
 20
-8457.318
 30
-660.578
 70
    32
  0
VERTEX
  8
T59SSILL
 62
3
 10
6756.220
 20
-8462.028
 30
-660.615
 70
    32
  0
VERTEX
  8
T59SSILL
 62
3
 10
6762.368
 20
-8466.069
 30
-660.631
 70
    32
  0
VERTEX
  8
T59SSILL
 62
3
 10
6780.374
 20
-8465.274
 30
-660.596
 70
    32
  0
VERTEX
  8
T59SSILL
 62
3
 10
6784.427
 20
-8470.627
 30
-660.610
 70
    32
  0
VERTEX
  8
T59SSILL
 62
3
 10
6778.404
 20
-8476.839
 30
-660.645
 70
    32
  0
VERTEX
  8
T59SSILL
 62
3
 10
6764.773
 20
-8486.608
 30
-660.707
 70
    32
  0
VERTEX
  8
T59SSILL
 62
3
 10
6747.128
 20
-8496.430
 30
-660.777
 70
    32
  0
VERTEX
  8
T59SSILL
 62
3
 10
6735.413
 20
-8461.204
 30
-660.523
 70
    32
  0
VERTEX
  8
T59SSILL
 62
3
 10
6729.840
 20
-8465.406
 30
-660.526
 70
    32
  0
VERTEX
  8
T59SSILL
 62
3
 10
6720.544
 20
-8465.843
 30
-660.490
 70
    32
  0
VERTEX
  8
T59SSILL
 62
3
 10
6707.743
 20
-8447.109
 30
-660.318
 70
    32
  0
VERTEX
  8
T59SSILL
 62
3
 10
6702.500
 20
-8450.843
 30
-660.319
 70
    32
  0
VERTEX
  8
T59SSILL
 62
3
 10
6714.962
 20
-8468.772
 30
-660.485
 70
    32
  0
VERTEX
  8
T59SSILL
 62
3
 10
6718.254
 20
-8477.093
 30
-660.551
 70
    32
  0
VERTEX
  8
T59SSILL
 62
3
 10
6719.961
 20
-8486.061
 30
-660.615
 70
    32
  0
VERTEX
  8
T59SSILL
 62
3
 10
6718.771
 20
-8493.901
 30
-660.660
 70
    32
  0
VERTEX
  8
T59SSILL
 62
3
 10
6733.582
 20
-8507.739
 30
-660.810
 70
    32
  0
VERTEX
  8
T59SSILL
 62
3
 10
6764.232
 20
-8545.271
 30
-660.938
 70
    32
  0
VERTEX
  8
T59SSILL
 62
3
 10
6760.276
 20
-8562.871
 30
-661.014
 70
    32
  0
VERTEX
  8
T59SSILL
 62
3
 10
6696.745
 20
-8608.472
 30
-661.293
 70
    32
  0
VERTEX
  8
T59SSILL
 62
3
 10
6683.992
 20
-8611.357
 30
-661.272
 70
    32
  0
VERTEX
  8
T59SSILL
 62
3
 10
6671.166
 20
-8607.684
 30
-661.236
 70
    32
  0
VERTEX
  8
T59SSILL
 62
3
 10
6666.509
 20
-8603.485
 30
-661.205
 70
    32
  0
VERTEX
  8
T59SSILL
 62
3
 10
6629.461
 20
-8551.318
 30
-660.846
 70
    32
  0
VERTEX
  8
T59SSILL
 62
3
 10
6642.584
 20
-8552.126
 30
-660.864
 70
    32
  0
VERTEX
  8
T59SSILL
 62
3
 10
6654.660
 20
-8547.141
 30
-660.847
 70
    32
  0
VERTEX
  8
T59SSILL
 62
3
 10
6668.299
 20
-8551.542
 30
-660.888
 70
    32
  0
VERTEX
  8
T59SSILL
 62
3
 10
6675.368
 20
-8544.515
 30
-660.852
 70
    32
  0
VERTEX
  8
T59SSILL
 62
3
 10
6670.542
 20
-8537.234
 30
-660.803
 70
    32
  0
VERTEX
  8
T59SSILL
 62
3
 10
6690.138
 20
-8523.338
 30
-660.738
 70
    32
  0
VERTEX
  8
T59SSILL
 62
3
 10
6684.475
 20
-8516.585
 30
-660.691
 70
    32
  0
VERTEX
  8
T59SSILL
 62
3
 10
6663.713
 20
-8530.457
 30
-660.754
 70
    32
  0
VERTEX
  8
T59SSILL
 62
3
 10
6660.539
 20
-8531.435
 30
-660.756
 70
    32
  0
VERTEX
  8
T59SSILL
 62
3
 10
6654.188
 20
-8529.770
 30
-660.740
 70
    32
  0
VERTEX
  8
T59SSILL
 62
3
 10
6649.412
 20
-8535.776
 30
-660.771
 70
    32
  0
VERTEX
  8
T59SSILL
 62
3
 10
6652.671
 20
-8539.643
 30
-660.798
 70
    32
  0
VERTEX
  8
T59SSILL
 62
3
 10
6644.037
 20
-8543.574
 30
-660.813
 70
    32
  0
VERTEX
  8
T59SSILL
 62
3
 10
6634.748
 20
-8544.965
 30
-660.812
 70
    32
  0
VERTEX
  8
T59SSILL
 62
3
 10
6621.710
 20
-8539.091
 30
-660.762
 70
    32
  0
VERTEX
  8
T59SSILL
 62
3
 10
6573.797
 20
-8474.035
 30
-660.312
 70
    32
  0
VERTEX
  8
T59SSILL
 62
3
 10
6580.607
 20
-8468.356
 30
-660.285
 70
    32
  0
VERTEX
  8
T59SSILL
 62
3
 10
6582.843
 20
-8453.093
 30
-660.194
 70
    32
  0
VERTEX
  8
T59SSILL
 62
3
 10
6581.376
 20
-8446.839
 30
-660.154
 70
    32
  0
VERTEX
  8
T59SSILL
 62
3
 10
6573.086
 20
-8434.445
 30
-660.069
 70
    32
  0
VERTEX
  8
T59SSILL
 62
3
 10
6562.931
 20
-8424.805
 30
-659.999
 70
    32
  0
VERTEX
  8
T59SSILL
 62
3
 10
6553.218
 20
-8418.490
 30
-659.950
 70
    32
  0
VERTEX
  8
T59SSILL
 62
3
 10
6539.722
 20
-8413.672
 30
-659.906
 70
    32
  0
VERTEX
  8
T59SSILL
 62
3
 10
6530.292
 20
-8412.494
 30
-659.889
 70
    32
  0
VERTEX
  8
T59SSILL
 62
3
 10
6525.619
 20
-8406.069
 30
-659.844
 70
    32
  0
VERTEX
  8
T59SSILL
 62
3
 10
6527.206
 20
-8395.828
 30
-659.783
 70
    32
  0
VERTEX
  8
T59SSILL
 62
3
 10
6523.275
 20
-8380.586
 30
-659.686
 70
    32
  0
VERTEX
  8
T59SSILL
 62
3
 10
6521.230
 20
-8355.860
 30
-659.532
 70
    32
  0
VERTEX
  8
T59SSILL
 62
3
 10
6514.875
 20
-8346.951
 30
-659.470
 70
    32
  0
VERTEX
  8
T59SSILL
 62
3
 10
6495.382
 20
-8348.540
 30
-659.459
 70
    32
  0
VERTEX
  8
T59SSILL
 62
3
 10
6483.697
 20
-8346.866
 30
-659.437
 70
    32
  0
VERTEX
  8
T59SSILL
 62
3
 10
6467.997
 20
-8325.423
 30
-659.289
 70
    32
  0
SEQEND
  8
T59SSILL
  0
POLYLINE
  8
T59SSILL
 62
3
 66
     1
 70
     9
  0
VERTEX
  8
T59SSILL
 62
3
 10
5967.766
 20
-9932.165
 30
-661.588
 70
    32
  0
VERTEX
  8
T59SSILL
 62
3
 10
5965.138
 20
-9946.555
 30
-661.508
 70
    32
  0
VERTEX
  8
T59SSILL
 62
3
 10
5955.428
 20
-9945.267
 30
-661.455
 70
    32
  0
VERTEX
  8
T59SSILL
 62
3
 10
5957.309
 20
-9939.490
 30
-661.492
 70
    32
  0
VERTEX
  8
T59SSILL
 62
3
 10
5964.778
 20
-9934.348
 30
-661.560
 70
    32
  0
SEQEND
  8
T59SSILL
  0
POLYLINE
  8
T59SSILL
 62
3
 66
     1
 70
     9
  0
VERTEX
  8
T59SSILL
 62
3
 10
5464.452
 20
-9636.178
 30
-660.349
 70
    32
  0
VERTEX
  8
T59SSILL
 62
3
 10
5451.297
 20
-9645.073
 30
-660.347
 70
    32
  0
VERTEX
  8
T59SSILL
 62
3
 10
5443.202
 20
-9641.052
 30
-660.404
 70
    32
  0
VERTEX
  8
T59SSILL
 62
3
 10
5420.195
 20
-9644.034
 30
-660.632
 70
    32
  0
VERTEX
  8
T59SSILL
 62
3
 10
5412.475
 20
-9640.396
 30
-660.688
 70
    32
  0
VERTEX
  8
T59SSILL
 62
3
 10
5416.293
 20
-9630.935
 30
-660.609
 70
    32
  0
VERTEX
  8
T59SSILL
 62
3
 10
5424.273
 20
-9621.573
 30
-660.491
 70
    32
  0
VERTEX
  8
T59SSILL
 62
3
 10
5426.763
 20
-9614.981
 30
-660.520
 70
    32
  0
VERTEX
  8
T59SSILL
 62
3
 10
5427.300
 20
-9605.449
 30
-660.610
 70
    32
  0
VERTEX
  8
T59SSILL
 62
3
 10
5420.781
 20
-9591.383
 30
-660.736
 70
    32
  0
VERTEX
  8
T59SSILL
 62
3
 10
5413.868
 20
-9581.363
 30
-660.825
 70
    32
  0
VERTEX
  8
T59SSILL
 62
3
 10
5408.187
 20
-9566.494
 30
-660.959
 70
    32
  0
VERTEX
  8
T59SSILL
 62
3
 10
5420.318
 20
-9560.902
 30
-661.020
 70
    32
  0
VERTEX
  8
T59SSILL
 62
3
 10
5426.066
 20
-9553.427
 30
-661.093
 70
    32
  0
VERTEX
  8
T59SSILL
 62
3
 10
5447.845
 20
-9537.626
 30
-661.256
 70
    32
  0
VERTEX
  8
T59SSILL
 62
3
 10
5450.854
 20
-9542.842
 30
-661.209
 70
    32
  0
VERTEX
  8
T59SSILL
 62
3
 10
5454.548
 20
-9559.641
 30
-661.055
 70
    32
  0
VERTEX
  8
T59SSILL
 62
3
 10
5439.079
 20
-9564.773
 30
-660.997
 70
    32
  0
VERTEX
  8
T59SSILL
 62
3
 10
5440.463
 20
-9571.666
 30
-660.933
 70
    32
  0
VERTEX
  8
T59SSILL
 62
3
 10
5443.357
 20
-9578.255
 30
-660.874
 70
    32
  0
VERTEX
  8
T59SSILL
 62
3
 10
5448.287
 20
-9580.832
 30
-660.853
 70
    32
  0
VERTEX
  8
T59SSILL
 62
3
 10
5458.879
 20
-9578.579
 30
-660.882
 70
    32
  0
VERTEX
  8
T59SSILL
 62
3
 10
5463.825
 20
-9583.946
 30
-660.835
 70
    32
  0
VERTEX
  8
T59SSILL
 62
3
 10
5469.063
 20
-9595.570
 30
-660.731
 70
    32
  0
VERTEX
  8
T59SSILL
 62
3
 10
5472.223
 20
-9613.606
 30
-660.565
 70
    32
  0
VERTEX
  8
T59SSILL
 62
3
 10
5483.586
 20
-9619.215
 30
-660.520
 70
    32
  0
VERTEX
  8
T59SSILL
 62
3
 10
5491.738
 20
-9635.152
 30
-660.377
 70
    32
  0
VERTEX
  8
T59SSILL
 62
3
 10
5478.224
 20
-9632.774
 30
-660.390
 70
    32
  0
SEQEND
  8
T59SSILL
  0
POLYLINE
  8
T59SSILL
 62
3
 66
     1
 70
     9
  0
VERTEX
  8
T59SSILL
 62
3
 10
5608.203
 20
-9421.697
 30
-661.939
 70
    32
  0
VERTEX
  8
T59SSILL
 62
3
 10
5617.757
 20
-9409.508
 30
-661.925
 70
    32
  0
VERTEX
  8
T59SSILL
 62
3
 10
5621.248
 20
-9397.258
 30
-661.925
 70
    32
  0
VERTEX
  8
T59SSILL
 62
3
 10
5763.313
 20
-9594.774
 30
-661.847
 70
    32
  0
VERTEX
  8
T59SSILL
 62
3
 10
5754.326
 20
-9600.842
 30
-661.766
 70
    32
  0
VERTEX
  8
T59SSILL
 62
3
 10
5759.381
 20
-9606.685
 30
-661.771
 70
    32
  0
VERTEX
  8
T59SSILL
 62
3
 10
5767.298
 20
-9600.922
 30
-661.844
 70
    32
  0
VERTEX
  8
T59SSILL
 62
3
 10
5818.932
 20
-9672.450
 30
-661.839
 70
    32
  0
VERTEX
  8
T59SSILL
 62
3
 10
5809.969
 20
-9678.616
 30
-661.758
 70
    32
  0
VERTEX
  8
T59SSILL
 62
3
 10
5815.260
 20
-9685.041
 30
-661.761
 70
    32
  0
VERTEX
  8
T59SSILL
 62
3
 10
5823.611
 20
-9678.973
 30
-661.839
 70
    32
  0
VERTEX
  8
T59SSILL
 62
3
 10
5828.140
 20
-9689.587
 30
-661.819
 70
    32
  0
VERTEX
  8
T59SSILL
 62
3
 10
5828.770
 20
-9706.164
 30
-661.749
 70
    32
  0
VERTEX
  8
T59SSILL
 62
3
 10
5825.661
 20
-9717.713
 30
-661.679
 70
    32
  0
VERTEX
  8
T59SSILL
 62
3
 10
5819.467
 20
-9729.163
 30
-661.591
 70
    32
  0
VERTEX
  8
T59SSILL
 62
3
 10
5813.465
 20
-9735.200
 30
-661.528
 70
    32
  0
VERTEX
  8
T59SSILL
 62
3
 10
5804.314
 20
-9732.340
 30
-661.486
 70
    32
  0
VERTEX
  8
T59SSILL
 62
3
 10
5799.233
 20
-9734.911
 30
-661.444
 70
    32
  0
VERTEX
  8
T59SSILL
 62
3
 10
5796.200
 20
-9747.299
 30
-661.370
 70
    32
  0
VERTEX
  8
T59SSILL
 62
3
 10
5741.842
 20
-9785.930
 30
-660.871
 70
    32
  0
VERTEX
  8
T59SSILL
 62
3
 10
5745.164
 20
-9792.006
 30
-660.864
 70
    32
  0
VERTEX
  8
T59SSILL
 62
3
 10
5820.975
 20
-9738.231
 30
-661.560
 70
    32
  0
VERTEX
  8
T59SSILL
 62
3
 10
5829.316
 20
-9727.539
 30
-661.658
 70
    32
  0
VERTEX
  8
T59SSILL
 62
3
 10
5834.051
 20
-9717.542
 30
-661.731
 70
    32
  0
VERTEX
  8
T59SSILL
 62
3
 10
5837.849
 20
-9698.682
 30
-661.837
 70
    32
  0
VERTEX
  8
T59SSILL
 62
3
 10
5878.730
 20
-9756.245
 30
-661.829
 70
    32
  0
VERTEX
  8
T59SSILL
 62
3
 10
5882.754
 20
-9767.213
 30
-661.805
 70
    32
  0
VERTEX
  8
T59SSILL
 62
3
 10
5883.426
 20
-9781.391
 30
-661.746
 70
    32
  0
VERTEX
  8
T59SSILL
 62
3
 10
5881.328
 20
-9790.078
 30
-661.695
 70
    32
  0
VERTEX
  8
T59SSILL
 62
3
 10
5874.788
 20
-9804.570
 30
-661.591
 70
    32
  0
VERTEX
  8
T59SSILL
 62
3
 10
5866.027
 20
-9814.048
 30
-661.497
 70
    32
  0
VERTEX
  8
T59SSILL
 62
3
 10
5860.361
 20
-9811.341
 30
-661.474
 70
    32
  0
VERTEX
  8
T59SSILL
 62
3
 10
5853.707
 20
-9815.681
 30
-661.415
 70
    32
  0
VERTEX
  8
T59SSILL
 62
3
 10
5854.737
 20
-9822.068
 30
-661.393
 70
    32
  0
VERTEX
  8
T59SSILL
 62
3
 10
5815.144
 20
-9850.568
 30
-661.028
 70
    32
  0
VERTEX
  8
T59SSILL
 62
3
 10
5800.588
 20
-9847.627
 30
-660.953
 70
    32
  0
VERTEX
  8
T59SSILL
 62
3
 10
5798.280
 20
-9840.951
 30
-660.968
 70
    32
  0
VERTEX
  8
T59SSILL
 62
3
 10
5795.208
 20
-9839.334
 30
-660.957
 70
    32
  0
VERTEX
  8
T59SSILL
 62
3
 10
5792.499
 20
-9841.771
 30
-660.930
 70
    32
  0
VERTEX
  8
T59SSILL
 62
3
 10
5790.912
 20
-9847.192
 30
-660.896
 70
    32
  0
VERTEX
  8
T59SSILL
 62
3
 10
5791.783
 20
-9854.121
 30
-660.871
 70
    32
  0
VERTEX
  8
T59SSILL
 62
3
 10
5796.341
 20
-9863.853
 30
-660.855
 70
    32
  0
VERTEX
  8
T59SSILL
 62
3
 10
5708.544
 20
-9927.317
 30
-660.770
 70
    32
  0
VERTEX
  8
T59SSILL
 62
3
 10
5694.809
 20
-9931.234
 30
-660.755
 70
    32
  0
VERTEX
  8
T59SSILL
 62
3
 10
5681.908
 20
-9927.887
 30
-660.716
 70
    32
  0
VERTEX
  8
T59SSILL
 62
3
 10
5673.745
 20
-9919.928
 30
-660.673
 70
    32
  0
VERTEX
  8
T59SSILL
 62
3
 10
5620.152
 20
-9846.218
 30
-660.315
 70
    32
  0
VERTEX
  8
T59SSILL
 62
3
 10
5624.588
 20
-9844.402
 30
-660.318
 70
    32
  0
VERTEX
  8
T59SSILL
 62
3
 10
5630.453
 20
-9852.464
 30
-660.357
 70
    32
  0
VERTEX
  8
T59SSILL
 62
3
 10
5638.188
 20
-9856.738
 30
-660.388
 70
    32
  0
VERTEX
  8
T59SSILL
 62
3
 10
5644.832
 20
-9863.606
 30
-660.425
 70
    32
  0
VERTEX
  8
T59SSILL
 62
3
 10
5649.780
 20
-9859.600
 30
-660.422
 70
    32
  0
VERTEX
  8
T59SSILL
 62
3
 10
5645.615
 20
-9854.118
 30
-660.395
 70
    32
  0
VERTEX
  8
T59SSILL
 62
3
 10
5643.774
 20
-9843.344
 30
-660.355
 70
    32
  0
VERTEX
  8
T59SSILL
 62
3
 10
5637.170
 20
-9831.923
 30
-660.303
 70
    32
  0
VERTEX
  8
T59SSILL
 62
3
 10
5621.292
 20
-9814.183
 30
-660.210
 70
    32
  0
VERTEX
  8
T59SSILL
 62
3
 10
5614.656
 20
-9809.786
 30
-660.182
 70
    32
  0
VERTEX
  8
T59SSILL
 62
3
 10
5611.625
 20
-9804.693
 30
-660.159
 70
    32
  0
VERTEX
  8
T59SSILL
 62
3
 10
5606.027
 20
-9808.077
 30
-660.158
 70
    32
  0
VERTEX
  8
T59SSILL
 62
3
 10
5608.467
 20
-9818.323
 30
-660.198
 70
    32
  0
VERTEX
  8
T59SSILL
 62
3
 10
5602.529
 20
-9821.838
 30
-660.197
 70
    32
  0
VERTEX
  8
T59SSILL
 62
3
 10
5590.055
 20
-9805.267
 30
-660.115
 70
    32
  0
VERTEX
  8
T59SSILL
 62
3
 10
5591.240
 20
-9792.050
 30
-660.074
 70
    32
  0
VERTEX
  8
T59SSILL
 62
3
 10
5594.691
 20
-9785.754
 30
-660.060
 70
    32
  0
VERTEX
  8
T59SSILL
 62
3
 10
5589.735
 20
-9774.686
 30
-660.013
 70
    32
  0
VERTEX
  8
T59SSILL
 62
3
 10
5586.274
 20
-9761.600
 30
-660.039
 70
    32
  0
VERTEX
  8
T59SSILL
 62
3
 10
5578.022
 20
-9761.352
 30
-659.991
 70
    32
  0
VERTEX
  8
T59SSILL
 62
3
 10
5573.153
 20
-9765.625
 30
-659.948
 70
    32
  0
VERTEX
  8
T59SSILL
 62
3
 10
5565.746
 20
-9764.892
 30
-659.930
 70
    32
  0
VERTEX
  8
T59SSILL
 62
3
 10
5547.992
 20
-9725.416
 30
-659.934
 70
    32
  0
VERTEX
  8
T59SSILL
 62
3
 10
5549.528
 20
-9719.923
 30
-659.966
 70
    32
  0
VERTEX
  8
T59SSILL
 62
3
 10
5539.907
 20
-9713.417
 30
-659.917
 70
    32
  0
VERTEX
  8
T59SSILL
 62
3
 10
5489.343
 20
-9615.288
 30
-660.561
 70
    32
  0
VERTEX
  8
T59SSILL
 62
3
 10
5488.333
 20
-9603.394
 30
-660.671
 70
    32
  0
VERTEX
  8
T59SSILL
 62
3
 10
5492.683
 20
-9589.466
 30
-660.804
 70
    32
  0
VERTEX
  8
T59SSILL
 62
3
 10
5491.202
 20
-9576.286
 30
-660.926
 70
    32
  0
VERTEX
  8
T59SSILL
 62
3
 10
5484.881
 20
-9566.498
 30
-661.012
 70
    32
  0
VERTEX
  8
T59SSILL
 62
3
 10
5470.178
 20
-9558.275
 30
-661.079
 70
    32
  0
VERTEX
  8
T59SSILL
 62
3
 10
5467.727
 20
-9554.930
 30
-661.108
 70
    32
  0
VERTEX
  8
T59SSILL
 62
3
 10
5468.129
 20
-9536.445
 30
-661.281
 70
    32
  0
VERTEX
  8
T59SSILL
 62
3
 10
5465.579
 20
-9524.660
 30
-661.389
 70
    32
  0
VERTEX
  8
T59SSILL
 62
3
 10
5556.330
 20
-9459.145
 30
-662.062
 70
    32
  0
SEQEND
  8
T59SSILL
  0
POLYLINE
  8
T59SSILL
 62
3
 66
     1
 70
     9
  0
VERTEX
  8
T59SSILL
 62
3
 10
5469.065
 20
-9515.647
 30
-661.475
 70
    32
  0
VERTEX
  8
T59SSILL
 62
3
 10
5475.848
 20
-9510.570
 30
-661.527
 70
    32
  0
VERTEX
  8
T59SSILL
 62
3
 10
5465.724
 20
-9510.879
 30
-661.517
 70
    32
  0
SEQEND
  8
T59SSILL
  0
POLYLINE
  8
T59SSILL
 62
3
 66
     1
 70
     9
  0
VERTEX
  8
T59SSILL
 62
3
 10
4971.287
 20
-9234.200
 30
-662.079
 70
    32
  0
VERTEX
  8
T59SSILL
 62
3
 10
4962.468
 20
-9218.212
 30
-661.988
 70
    32
  0
VERTEX
  8
T59SSILL
 62
3
 10
4960.638
 20
-9207.618
 30
-661.935
 70
    32
  0
VERTEX
  8
T59SSILL
 62
3
 10
4961.815
 20
-9194.394
 30
-661.874
 70
    32
  0
VERTEX
  8
T59SSILL
 62
3
 10
4964.583
 20
-9184.677
 30
-661.832
 70
    32
  0
VERTEX
  8
T59SSILL
 62
3
 10
4971.956
 20
-9173.867
 30
-661.794
 70
    32
  0
VERTEX
  8
T59SSILL
 62
3
 10
5240.273
 20
-8981.010
 30
-662.012
 70
    32
  0
VERTEX
  8
T59SSILL
 62
3
 10
5324.117
 20
-8994.571
 30
-662.115
 70
    32
  0
VERTEX
  8
T59SSILL
 62
3
 10
5330.537
 20
-8997.597
 30
-662.112
 70
    32
  0
VERTEX
  8
T59SSILL
 62
3
 10
5349.137
 20
-9018.043
 30
-662.100
 70
    32
  0
VERTEX
  8
T59SSILL
 62
3
 10
5430.081
 20
-9131.397
 30
-662.048
 70
    32
  0
VERTEX
  8
T59SSILL
 62
3
 10
5422.431
 20
-9137.081
 30
-662.051
 70
    32
  0
VERTEX
  8
T59SSILL
 62
3
 10
5426.915
 20
-9143.633
 30
-662.048
 70
    32
  0
VERTEX
  8
T59SSILL
 62
3
 10
5434.818
 20
-9138.311
 30
-662.045
 70
    32
  0
VERTEX
  8
T59SSILL
 62
3
 10
5438.014
 20
-9142.103
 30
-662.043
 70
    32
  0
VERTEX
  8
T59SSILL
 62
3
 10
5597.832
 20
-9364.014
 30
-661.940
 70
    32
  0
VERTEX
  8
T59SSILL
 62
3
 10
5589.342
 20
-9369.622
 30
-661.944
 70
    32
  0
VERTEX
  8
T59SSILL
 62
3
 10
5593.285
 20
-9375.187
 30
-661.941
 70
    32
  0
VERTEX
  8
T59SSILL
 62
3
 10
5601.332
 20
-9369.316
 30
-661.937
 70
    32
  0
VERTEX
  8
T59SSILL
 62
3
 10
5614.566
 20
-9386.970
 30
-661.929
 70
    32
  0
VERTEX
  8
T59SSILL
 62
3
 10
5615.928
 20
-9393.987
 30
-661.928
 70
    32
  0
VERTEX
  8
T59SSILL
 62
3
 10
5613.052
 20
-9407.097
 30
-661.928
 70
    32
  0
VERTEX
  8
T59SSILL
 62
3
 10
5605.043
 20
-9417.341
 30
-661.939
 70
    32
  0
VERTEX
  8
T59SSILL
 62
3
 10
5495.684
 20
-9496.454
 30
-661.672
 70
    32
  0
VERTEX
  8
T59SSILL
 62
3
 10
5487.556
 20
-9500.534
 30
-661.629
 70
    32
  0
VERTEX
  8
T59SSILL
 62
3
 10
5471.140
 20
-9503.852
 30
-661.587
 70
    32
  0
VERTEX
  8
T59SSILL
 62
3
 10
5450.196
 20
-9500.864
 30
-661.600
 70
    32
  0
VERTEX
  8
T59SSILL
 62
3
 10
5436.526
 20
-9490.733
 30
-661.685
 70
    32
  0
VERTEX
  8
T59SSILL
 62
3
 10
5429.382
 20
-9482.383
 30
-661.758
 70
    32
  0
VERTEX
  8
T59SSILL
 62
3
 10
5384.372
 20
-9404.166
 30
-662.276
 70
    32
  0
VERTEX
  8
T59SSILL
 62
3
 10
5382.831
 20
-9263.173
 30
-662.124
 70
    32
  0
VERTEX
  8
T59SSILL
 62
3
 10
5376.045
 20
-9262.866
 30
-662.135
 70
    32
  0
VERTEX
  8
T59SSILL
 62
3
 10
5377.736
 20
-9358.730
 30
-662.237
 70
    32
  0
VERTEX
  8
T59SSILL
 62
3
 10
5370.480
 20
-9358.214
 30
-662.248
 70
    32
  0
VERTEX
  8
T59SSILL
 62
3
 10
5370.209
 20
-9365.512
 30
-662.256
 70
    32
  0
VERTEX
  8
T59SSILL
 62
3
 10
5377.061
 20
-9366.528
 30
-662.246
 70
    32
  0
VERTEX
  8
T59SSILL
 62
3
 10
5377.238
 20
-9388.915
 30
-662.270
 70
    32
  0
VERTEX
  8
T59SSILL
 62
3
 10
5374.927
 20
-9390.535
 30
-662.276
 70
    32
  0
VERTEX
  8
T59SSILL
 62
3
 10
5311.383
 20
-9303.548
 30
-662.282
 70
    32
  0
VERTEX
  8
T59SSILL
 62
3
 10
5305.785
 20
-9306.933
 30
-662.295
 70
    32
  0
VERTEX
  8
T59SSILL
 62
3
 10
5353.679
 20
-9372.357
 30
-662.290
 70
    32
  0
VERTEX
  8
T59SSILL
 62
3
 10
5348.601
 20
-9376.024
 30
-662.302
 70
    32
  0
VERTEX
  8
T59SSILL
 62
3
 10
5353.930
 20
-9383.168
 30
-662.301
 70
    32
  0
VERTEX
  8
T59SSILL
 62
3
 10
5358.965
 20
-9379.747
 30
-662.290
 70
    32
  0
VERTEX
  8
T59SSILL
 62
3
 10
5379.329
 20
-9407.269
 30
-662.287
 70
    32
  0
VERTEX
  8
T59SSILL
 62
3
 10
5421.897
 20
-9484.612
 30
-661.732
 70
    32
  0
VERTEX
  8
T59SSILL
 62
3
 10
5435.989
 20
-9500.265
 30
-661.596
 70
    32
  0
VERTEX
  8
T59SSILL
 62
3
 10
5443.103
 20
-9521.022
 30
-661.407
 70
    32
  0
VERTEX
  8
T59SSILL
 62
3
 10
5451.099
 20
-9528.129
 30
-661.346
 70
    32
  0
VERTEX
  8
T59SSILL
 62
3
 10
5424.993
 20
-9547.285
 30
-661.150
 70
    32
  0
VERTEX
  8
T59SSILL
 62
3
 10
5416.767
 20
-9541.848
 30
-661.195
 70
    32
  0
VERTEX
  8
T59SSILL
 62
3
 10
5394.831
 20
-9547.742
 30
-661.125
 70
    32
  0
VERTEX
  8
T59SSILL
 62
3
 10
5385.519
 20
-9540.910
 30
-661.182
 70
    32
  0
VERTEX
  8
T59SSILL
 62
3
 10
5382.091
 20
-9534.481
 30
-661.240
 70
    32
  0
VERTEX
  8
T59SSILL
 62
3
 10
5376.781
 20
-9537.663
 30
-661.206
 70
    32
  0
VERTEX
  8
T59SSILL
 62
3
 10
5379.912
 20
-9555.503
 30
-661.042
 70
    32
  0
VERTEX
  8
T59SSILL
 62
3
 10
5376.762
 20
-9570.528
 30
-660.900
 70
    32
  0
VERTEX
  8
T59SSILL
 62
3
 10
5380.994
 20
-9578.873
 30
-660.825
 70
    32
  0
VERTEX
  8
T59SSILL
 62
3
 10
5300.951
 20
-9632.144
 30
-660.967
 70
    32
  0
VERTEX
  8
T59SSILL
 62
3
 10
5281.815
 20
-9635.752
 30
-660.992
 70
    32
  0
VERTEX
  8
T59SSILL
 62
3
 10
5272.464
 20
-9634.550
 30
-661.017
 70
    32
  0
VERTEX
  8
T59SSILL
 62
3
 10
5261.384
 20
-9630.574
 30
-661.059
 70
    32
  0
VERTEX
  8
T59SSILL
 62
3
 10
5248.447
 20
-9620.341
 30
-661.131
 70
    32
  0
VERTEX
  8
T59SSILL
 62
3
 10
5121.905
 20
-9444.349
 30
-662.169
 70
    32
  0
VERTEX
  8
T59SSILL
 62
3
 10
5123.523
 20
-9439.087
 30
-662.188
 70
    32
  0
VERTEX
  8
T59SSILL
 62
3
 10
5121.238
 20
-9434.191
 30
-662.214
 70
    32
  0
VERTEX
  8
T59SSILL
 62
3
 10
5110.831
 20
-9425.327
 30
-662.275
 70
    32
  0
VERTEX
  8
T59SSILL
 62
3
 10
5065.430
 20
-9366.104
 30
-662.631
 70
    32
  0
VERTEX
  8
T59SSILL
 62
3
 10
5068.968
 20
-9363.423
 30
-662.623
 70
    32
  0
VERTEX
  8
T59SSILL
 62
3
 10
5057.624
 20
-9347.431
 30
-662.734
 70
    32
  0
VERTEX
  8
T59SSILL
 62
3
 10
5054.289
 20
-9349.334
 30
-662.738
 70
    32
  0
VERTEX
  8
T59SSILL
 62
3
 10
5039.497
 20
-9328.817
 30
-662.647
 70
    32
  0
SEQEND
  8
T59SSILL
  0
POLYLINE
  8
T59SSILL
 62
3
 66
     1
 70
     9
  0
VERTEX
  8
T59SSILL
 62
3
 10
3717.527
 20
-8638.274
 30
-658.601
 70
    32
  0
VERTEX
  8
T59SSILL
 62
3
 10
3716.384
 20
-8630.556
 30
-658.595
 70
    32
  0
VERTEX
  8
T59SSILL
 62
3
 10
3718.816
 20
-8620.417
 30
-658.597
 70
    32
  0
VERTEX
  8
T59SSILL
 62
3
 10
3723.251
 20
-8613.717
 30
-658.564
 70
    32
  0
VERTEX
  8
T59SSILL
 62
3
 10
3775.260
 20
-8575.963
 30
-658.390
 70
    32
  0
VERTEX
  8
T59SSILL
 62
3
 10
3789.000
 20
-8574.000
 30
-658.391
 70
    32
  0
VERTEX
  8
T59SSILL
 62
3
 10
3792.000
 20
-8569.000
 30
-658.364
 70
    32
  0
VERTEX
  8
T59SSILL
 62
3
 10
3846.000
 20
-8559.000
 30
-658.353
 70
    32
  0
VERTEX
  8
T59SSILL
 62
3
 10
3916.000
 20
-8584.000
 30
-658.559
 70
    32
  0
VERTEX
  8
T59SSILL
 62
3
 10
3807.000
 20
-8661.000
 30
-658.821
 70
    32
  0
VERTEX
  8
T59SSILL
 62
3
 10
3801.000
 20
-8655.000
 30
-658.804
 70
    32
  0
VERTEX
  8
T59SSILL
 62
3
 10
3790.000
 20
-8664.000
 30
-658.782
 70
    32
  0
VERTEX
  8
T59SSILL
 62
3
 10
3794.000
 20
-8670.000
 30
-658.793
 70
    32
  0
VERTEX
  8
T59SSILL
 62
3
 10
3779.000
 20
-8681.000
 30
-658.762
 70
    32
  0
VERTEX
  8
T59SSILL
 62
3
 10
3771.000
 20
-8689.000
 30
-658.756
 70
    32
  0
VERTEX
  8
T59SSILL
 62
3
 10
3766.000
 20
-8698.000
 30
-658.779
 70
    32
  0
VERTEX
  8
T59SSILL
 62
3
 10
3765.000
 20
-8707.000
 30
-658.807
 70
    32
  0
VERTEX
  8
T59SSILL
 62
3
 10
3721.416
 20
-8645.014
 30
-658.612
 70
    32
  0
SEQEND
  8
T59SSILL
  0
POLYLINE
  8
T59SSILL
 62
3
 66
     1
 70
     9
  0
VERTEX
  8
T59SSILL
 62
3
 10
5306.370
 20
-8932.115
 30
-661.786
 70
    32
  0
VERTEX
  8
T59SSILL
 62
3
 10
5308.964
 20
-8932.128
 30
-661.789
 70
    32
  0
VERTEX
  8
T59SSILL
 62
3
 10
5310.389
 20
-8934.469
 30
-661.803
 70
    32
  0
VERTEX
  8
T59SSILL
 62
3
 10
5309.521
 20
-8946.602
 30
-661.873
 70
    32
  0
VERTEX
  8
T59SSILL
 62
3
 10
5310.777
 20
-8957.463
 30
-661.941
 70
    32
  0
VERTEX
  8
T59SSILL
 62
3
 10
5313.535
 20
-8966.624
 30
-662.000
 70
    32
  0
VERTEX
  8
T59SSILL
 62
3
 10
5320.862
 20
-8979.693
 30
-662.088
 70
    32
  0
VERTEX
  8
T59SSILL
 62
3
 10
5319.736
 20
-8981.775
 30
-662.100
 70
    32
  0
VERTEX
  8
T59SSILL
 62
3
 10
5312.604
 20
-8983.433
 30
-662.102
 70
    32
  0
VERTEX
  8
T59SSILL
 62
3
 10
5248.176
 20
-8973.112
 30
-661.973
 70
    32
  0
SEQEND
  8
T59SSILL
  0
POLYLINE
  8
T59SSILL
 62
3
 66
     1
 70
     9
  0
VERTEX
  8
T59SSILL
 62
3
 10
3879.892
 20
-8976.016
 30
-659.811
 70
    32
  0
VERTEX
  8
T59SSILL
 62
3
 10
3869.117
 20
-8983.968
 30
-659.823
 70
    32
  0
VERTEX
  8
T59SSILL
 62
3
 10
3864.768
 20
-8978.311
 30
-659.800
 70
    32
  0
VERTEX
  8
T59SSILL
 62
3
 10
3825.149
 20
-9006.552
 30
-659.730
 70
    32
  0
VERTEX
  8
T59SSILL
 62
3
 10
3838.826
 20
-9012.925
 30
-659.781
 70
    32
  0
VERTEX
  8
T59SSILL
 62
3
 10
3861.783
 20
-8998.273
 30
-659.840
 70
    32
  0
VERTEX
  8
T59SSILL
 62
3
 10
3879.731
 20
-8998.315
 30
-659.882
 70
    32
  0
VERTEX
  8
T59SSILL
 62
3
 10
3893.374
 20
-8967.539
 30
-659.800
 70
    32
  0
VERTEX
  8
T59SSILL
 62
3
 10
3886.071
 20
-8963.821
 30
-659.779
 70
    32
  0
VERTEX
  8
T59SSILL
 62
3
 10
3876.161
 20
-8970.441
 30
-659.789
 70
    32
  0
SEQEND
  8
T59SSILL
  0
POLYLINE
  8
T59SSILL
 62
3
 66
     1
 70
     9
  0
VERTEX
  8
T59SSILL
 62
3
 10
1501.401
 20
-8270.559
 30
-657.758
 70
    32
  0
VERTEX
  8
T59SSILL
 62
3
 10
1497.702
 20
-8263.312
 30
-657.744
 70
    32
  0
VERTEX
  8
T59SSILL
 62
3
 10
1492.304
 20
-8261.044
 30
-657.728
 70
    32
  0
VERTEX
  8
T59SSILL
 62
3
 10
1483.087
 20
-8266.085
 30
-657.698
 70
    32
  0
VERTEX
  8
T59SSILL
 62
3
 10
1472.632
 20
-8269.298
 30
-657.644
 70
    32
  0
VERTEX
  8
T59SSILL
 62
3
 10
1468.210
 20
-8268.503
 30
-657.620
 70
    32
  0
VERTEX
  8
T59SSILL
 62
3
 10
1460.332
 20
-8256.774
 30
-657.572
 70
    32
  0
VERTEX
  8
T59SSILL
 62
3
 10
1461.205
 20
-8249.336
 30
-657.573
 70
    32
  0
VERTEX
  8
T59SSILL
 62
3
 10
1542.098
 20
-8192.552
 30
-657.854
 70
    32
  0
VERTEX
  8
T59SSILL
 62
3
 10
1548.423
 20
-8189.534
 30
-657.872
 70
    32
  0
VERTEX
  8
T59SSILL
 62
3
 10
1570.731
 20
-8186.789
 30
-657.937
 70
    32
  0
VERTEX
  8
T59SSILL
 62
3
 10
1581.063
 20
-8189.804
 30
-657.968
 70
    32
  0
VERTEX
  8
T59SSILL
 62
3
 10
1591.935
 20
-8195.928
 30
-658.002
 70
    32
  0
VERTEX
  8
T59SSILL
 62
3
 10
1712.454
 20
-8304.879
 30
-657.948
 70
    32
  0
VERTEX
  8
T59SSILL
 62
3
 10
1696.550
 20
-8299.944
 30
-657.965
 70
    32
  0
VERTEX
  8
T59SSILL
 62
3
 10
1674.942
 20
-8297.668
 30
-657.977
 70
    32
  0
VERTEX
  8
T59SSILL
 62
3
 10
1659.560
 20
-8302.134
 30
-657.970
 70
    32
  0
VERTEX
  8
T59SSILL
 62
3
 10
1641.281
 20
-8304.976
 30
-657.969
 70
    32
  0
VERTEX
  8
T59SSILL
 62
3
 10
1626.882
 20
-8310.558
 30
-657.959
 70
    32
  0
VERTEX
  8
T59SSILL
 62
3
 10
1559.008
 20
-8358.517
 30
-657.860
 70
    32
  0
VERTEX
  8
T59SSILL
 62
3
 10
1553.764
 20
-8361.068
 30
-657.855
 70
    32
  0
VERTEX
  8
T59SSILL
 62
3
 10
1544.991
 20
-8361.507
 30
-657.857
 70
    32
  0
VERTEX
  8
T59SSILL
 62
3
 10
1533.365
 20
-8357.035
 30
-657.871
 70
    32
  0
VERTEX
  8
T59SSILL
 62
3
 10
1524.392
 20
-8349.621
 30
-657.849
 70
    32
  0
VERTEX
  8
T59SSILL
 62
3
 10
1481.581
 20
-8286.046
 30
-657.700
 70
    32
  0
VERTEX
  8
T59SSILL
 62
3
 10
1482.294
 20
-8283.000
 30
-657.702
 70
    32
  0
VERTEX
  8
T59SSILL
 62
3
 10
1487.527
 20
-8279.690
 30
-657.719
 70
    32
  0
SEQEND
  8
T59SSILL
  0
POLYLINE
  8
T59SSILL
 62
3
 66
     1
 70
     9
  0
VERTEX
  8
T59SSILL
 62
3
 10
1395.027
 20
-8199.260
 30
-657.256
 70
    32
  0
VERTEX
  8
T59SSILL
 62
3
 10
1405.152
 20
-8210.319
 30
-657.291
 70
    32
  0
VERTEX
  8
T59SSILL
 62
3
 10
1407.134
 20
-8215.982
 30
-657.300
 70
    32
  0
VERTEX
  8
T59SSILL
 62
3
 10
1411.352
 20
-8220.216
 30
-657.315
 70
    32
  0
VERTEX
  8
T59SSILL
 62
3
 10
1418.681
 20
-8217.224
 30
-657.334
 70
    32
  0
VERTEX
  8
T59SSILL
 62
3
 10
1408.109
 20
-8194.110
 30
-657.288
 70
    32
  0
VERTEX
  8
T59SSILL
 62
3
 10
1438.007
 20
-8184.564
 30
-657.418
 70
    32
  0
VERTEX
  8
T59SSILL
 62
3
 10
1462.536
 20
-8182.155
 30
-657.548
 70
    32
  0
VERTEX
  8
T59SSILL
 62
3
 10
1531.526
 20
-8186.536
 30
-657.821
 70
    32
  0
VERTEX
  8
T59SSILL
 62
3
 10
1531.101
 20
-8191.014
 30
-657.821
 70
    32
  0
VERTEX
  8
T59SSILL
 62
3
 10
1411.438
 20
-8275.939
 30
-657.352
 70
    32
  0
VERTEX
  8
T59SSILL
 62
3
 10
1402.478
 20
-8275.530
 30
-657.327
 70
    32
  0
VERTEX
  8
T59SSILL
 62
3
 10
1362.162
 20
-8217.569
 30
-657.177
 70
    32
  0
VERTEX
  8
T59SSILL
 62
3
 10
1368.198
 20
-8211.037
 30
-657.189
 70
    32
  0
VERTEX
  8
T59SSILL
 62
3
 10
1378.005
 20
-8205.013
 30
-657.212
 70
    32
  0
SEQEND
  8
T59SSILL
  0
POLYLINE
  8
T59SSILL
 62
3
 66
     1
 70
     9
  0
VERTEX
  8
T59SSILL
 62
3
 10
1576.394
 20
-8181.116
 30
-657.952
 70
    32
  0
VERTEX
  8
T59SSILL
 62
3
 10
1520.552
 20
-8175.665
 30
-657.786
 70
    32
  0
VERTEX
  8
T59SSILL
 62
3
 10
1464.870
 20
-8172.982
 30
-657.586
 70
    32
  0
VERTEX
  8
T59SSILL
 62
3
 10
1441.885
 20
-8174.362
 30
-657.467
 70
    32
  0
VERTEX
  8
T59SSILL
 62
3
 10
1405.468
 20
-8184.878
 30
-657.272
 70
    32
  0
VERTEX
  8
T59SSILL
 62
3
 10
1400.962
 20
-8179.212
 30
-657.252
 70
    32
  0
VERTEX
  8
T59SSILL
 62
3
 10
1392.072
 20
-8174.586
 30
-657.220
 70
    32
  0
VERTEX
  8
T59SSILL
 62
3
 10
1386.545
 20
-8162.330
 30
-657.223
 70
    32
  0
VERTEX
  8
T59SSILL
 62
3
 10
1395.861
 20
-8151.626
 30
-657.304
 70
    32
  0
VERTEX
  8
T59SSILL
 62
3
 10
1415.088
 20
-8143.810
 30
-657.429
 70
    32
  0
VERTEX
  8
T59SSILL
 62
3
 10
1419.352
 20
-8140.228
 30
-657.462
 70
    32
  0
VERTEX
  8
T59SSILL
 62
3
 10
1427.787
 20
-8146.614
 30
-657.484
 70
    32
  0
VERTEX
  8
T59SSILL
 62
3
 10
1438.499
 20
-8144.197
 30
-657.546
 70
    32
  0
VERTEX
  8
T59SSILL
 62
3
 10
1440.035
 20
-8141.969
 30
-657.560
 70
    32
  0
VERTEX
  8
T59SSILL
 62
3
 10
1449.088
 20
-8139.679
 30
-657.613
 70
    32
  0
VERTEX
  8
T59SSILL
 62
3
 10
1450.702
 20
-8132.352
 30
-657.644
 70
    32
  0
VERTEX
  8
T59SSILL
 62
3
 10
1449.780
 20
-8122.181
 30
-657.671
 70
    32
  0
VERTEX
  8
T59SSILL
 62
3
 10
1442.084
 20
-8109.660
 30
-657.672
 70
    32
  0
VERTEX
  8
T59SSILL
 62
3
 10
1437.478
 20
-8088.396
 30
-657.717
 70
    32
  0
VERTEX
  8
T59SSILL
 62
3
 10
1452.372
 20
-8077.526
 30
-657.808
 70
    32
  0
VERTEX
  8
T59SSILL
 62
3
 10
1473.404
 20
-8086.134
 30
-657.837
 70
    32
  0
VERTEX
  8
T59SSILL
 62
3
 10
1550.618
 20
-8157.345
 30
-657.869
 70
    32
  0
SEQEND
  8
T59SSILL
  0
POLYLINE
  8
T59SSILL
 62
3
 66
     1
 70
     9
  0
VERTEX
  8
T59SSILL
 62
3
 10
1373.832
 20
-8197.568
 30
-657.194
 70
    32
  0
VERTEX
  8
T59SSILL
 62
3
 10
1359.764
 20
-8189.635
 30
-657.143
 70
    32
  0
VERTEX
  8
T59SSILL
 62
3
 10
1349.915
 20
-8177.167
 30
-657.099
 70
    32
  0
VERTEX
  8
T59SSILL
 62
3
 10
1343.684
 20
-8179.568
 30
-657.083
 70
    32
  0
VERTEX
  8
T59SSILL
 62
3
 10
1339.183
 20
-8177.625
 30
-657.068
 70
    32
  0
VERTEX
  8
T59SSILL
 62
3
 10
1335.243
 20
-8174.064
 30
-657.052
 70
    32
  0
VERTEX
  8
T59SSILL
 62
3
 10
1331.473
 20
-8166.869
 30
-657.032
 70
    32
  0
VERTEX
  8
T59SSILL
 62
3
 10
1321.531
 20
-8172.116
 30
-657.009
 70
    32
  0
VERTEX
  8
T59SSILL
 62
3
 10
1327.596
 20
-8181.235
 30
-657.038
 70
    32
  0
VERTEX
  8
T59SSILL
 62
3
 10
1328.105
 20
-8185.792
 30
-657.045
 70
    32
  0
VERTEX
  8
T59SSILL
 62
3
 10
1326.461
 20
-8188.319
 30
-657.043
 70
    32
  0
VERTEX
  8
T59SSILL
 62
3
 10
1313.114
 20
-8193.555
 30
-657.009
 70
    32
  0
VERTEX
  8
T59SSILL
 62
3
 10
1319.056
 20
-8204.738
 30
-657.040
 70
    32
  0
VERTEX
  8
T59SSILL
 62
3
 10
1331.648
 20
-8199.072
 30
-657.071
 70
    32
  0
VERTEX
  8
T59SSILL
 62
3
 10
1347.758
 20
-8194.759
 30
-657.113
 70
    32
  0
VERTEX
  8
T59SSILL
 62
3
 10
1353.426
 20
-8196.499
 30
-657.132
 70
    32
  0
VERTEX
  8
T59SSILL
 62
3
 10
1356.784
 20
-8202.244
 30
-657.149
 70
    32
  0
VERTEX
  8
T59SSILL
 62
3
 10
1283.356
 20
-8228.864
 30
-656.963
 70
    32
  0
VERTEX
  8
T59SSILL
 62
3
 10
1267.995
 20
-8225.719
 30
-656.914
 70
    32
  0
VERTEX
  8
T59SSILL
 62
3
 10
1259.503
 20
-8228.472
 30
-656.951
 70
    32
  0
VERTEX
  8
T59SSILL
 62
3
 10
1250.363
 20
-8226.333
 30
-656.944
 70
    32
  0
VERTEX
  8
T59SSILL
 62
3
 10
1243.679
 20
-8223.807
 30
-656.942
 70
    32
  0
VERTEX
  8
T59SSILL
 62
3
 10
1228.971
 20
-8214.263
 30
-656.953
 70
    32
  0
VERTEX
  8
T59SSILL
 62
3
 10
1223.337
 20
-8208.553
 30
-656.966
 70
    32
  0
VERTEX
  8
T59SSILL
 62
3
 10
1216.077
 20
-8190.231
 30
-657.022
 70
    32
  0
VERTEX
  8
T59SSILL
 62
3
 10
1211.015
 20
-8168.644
 30
-656.958
 70
    32
  0
VERTEX
  8
T59SSILL
 62
3
 10
1208.049
 20
-8141.129
 30
-656.843
 70
    32
  0
VERTEX
  8
T59SSILL
 62
3
 10
1220.535
 20
-8114.060
 30
-656.643
 70
    32
  0
VERTEX
  8
T59SSILL
 62
3
 10
1292.063
 20
-8063.304
 30
-657.043
 70
    32
  0
VERTEX
  8
T59SSILL
 62
3
 10
1294.357
 20
-8073.998
 30
-657.022
 70
    32
  0
VERTEX
  8
T59SSILL
 62
3
 10
1341.281
 20
-8145.829
 30
-657.040
 70
    32
  0
VERTEX
  8
T59SSILL
 62
3
 10
1336.670
 20
-8152.955
 30
-657.031
 70
    32
  0
VERTEX
  8
T59SSILL
 62
3
 10
1340.548
 20
-8159.851
 30
-657.051
 70
    32
  0
VERTEX
  8
T59SSILL
 62
3
 10
1346.715
 20
-8156.620
 30
-657.065
 70
    32
  0
VERTEX
  8
T59SSILL
 62
3
 10
1352.521
 20
-8160.779
 30
-657.087
 70
    32
  0
VERTEX
  8
T59SSILL
 62
3
 10
1362.605
 20
-8174.607
 30
-657.133
 70
    32
  0
VERTEX
  8
T59SSILL
 62
3
 10
1370.928
 20
-8181.734
 30
-657.166
 70
    32
  0
VERTEX
  8
T59SSILL
 62
3
 10
1390.857
 20
-8191.374
 30
-657.237
 70
    32
  0
SEQEND
  8
T59SSILL
  0
POLYLINE
  8
T59SSILL
 62
3
 66
     1
 70
     9
  0
VERTEX
  8
T59SSILL
 62
3
 10
1213.136
 20
-8208.839
 30
-656.948
 70
    32
  0
VERTEX
  8
T59SSILL
 62
3
 10
1215.443
 20
-8247.800
 30
-656.805
 70
    32
  0
VERTEX
  8
T59SSILL
 62
3
 10
1218.520
 20
-8251.231
 30
-656.797
 70
    32
  0
VERTEX
  8
T59SSILL
 62
3
 10
1259.456
 20
-8236.289
 30
-656.921
 70
    32
  0
VERTEX
  8
T59SSILL
 62
3
 10
1240.664
 20
-8232.058
 30
-656.906
 70
    32
  0
VERTEX
  8
T59SSILL
 62
3
 10
1227.134
 20
-8223.071
 30
-656.917
 70
    32
  0
SEQEND
  8
T59SSILL
  0
POLYLINE
  8
T59SSILL
 62
3
 66
     1
 70
     9
  0
VERTEX
  8
T59SSILL
 62
3
 10
1367.512
 20
-7893.756
 30
-657.234
 70
    32
  0
VERTEX
  8
T59SSILL
 62
3
 10
1361.695
 20
-7897.649
 30
-657.239
 70
    32
  0
VERTEX
  8
T59SSILL
 62
3
 10
1357.988
 20
-7892.109
 30
-657.215
 70
    32
  0
VERTEX
  8
T59SSILL
 62
3
 10
1332.414
 20
-7909.008
 30
-657.239
 70
    32
  0
VERTEX
  8
T59SSILL
 62
3
 10
1329.042
 20
-7912.854
 30
-657.248
 70
    32
  0
VERTEX
  8
T59SSILL
 62
3
 10
1325.594
 20
-7919.132
 30
-657.265
 70
    32
  0
VERTEX
  8
T59SSILL
 62
3
 10
1323.771
 20
-7929.743
 30
-657.299
 70
    32
  0
VERTEX
  8
T59SSILL
 62
3
 10
1324.453
 20
-7936.055
 30
-657.322
 70
    32
  0
VERTEX
  8
T59SSILL
 62
3
 10
1327.943
 20
-7944.007
 30
-657.355
 70
    32
  0
VERTEX
  8
T59SSILL
 62
3
 10
1358.497
 20
-7973.519
 30
-657.500
 70
    32
  0
VERTEX
  8
T59SSILL
 62
3
 10
1422.252
 20
-8028.304
 30
-657.778
 70
    32
  0
VERTEX
  8
T59SSILL
 62
3
 10
1415.579
 20
-7906.147
 30
-657.343
 70
    32
  0
VERTEX
  8
T59SSILL
 62
3
 10
1409.076
 20
-7875.805
 30
-657.228
 70
    32
  0
VERTEX
  8
T59SSILL
 62
3
 10
1372.515
 20
-7881.589
 30
-657.198
 70
    32
  0
VERTEX
  8
T59SSILL
 62
3
 10
1364.039
 20
-7888.566
 30
-657.211
 70
    32
  0
SEQEND
  8
T59SSILL
  0
POLYLINE
  8
T59SSILL
 62
3
 66
     1
 70
     9
  0
VERTEX
  8
T59SSILL
 62
3
 10
1481.603
 20
-8056.964
 30
-657.910
 70
    32
  0
VERTEX
  8
T59SSILL
 62
3
 10
1491.552
 20
-8035.820
 30
-657.910
 70
    32
  0
VERTEX
  8
T59SSILL
 62
3
 10
1500.641
 20
-8027.037
 30
-657.894
 70
    32
  0
VERTEX
  8
T59SSILL
 62
3
 10
1545.016
 20
-7995.202
 30
-657.852
 70
    32
  0
VERTEX
  8
T59SSILL
 62
3
 10
1552.352
 20
-7985.081
 30
-657.828
 70
    32
  0
VERTEX
  8
T59SSILL
 62
3
 10
1557.517
 20
-7964.286
 30
-657.764
 70
    32
  0
VERTEX
  8
T59SSILL
 62
3
 10
1554.859
 20
-7950.367
 30
-657.711
 70
    32
  0
VERTEX
  8
T59SSILL
 62
3
 10
1523.347
 20
-7898.900
 30
-657.484
 70
    32
  0
VERTEX
  8
T59SSILL
 62
3
 10
1516.599
 20
-7902.376
 30
-657.485
 70
    32
  0
VERTEX
  8
T59SSILL
 62
3
 10
1512.044
 20
-7894.116
 30
-657.450
 70
    32
  0
VERTEX
  8
T59SSILL
 62
3
 10
1517.848
 20
-7889.947
 30
-657.444
 70
    32
  0
VERTEX
  8
T59SSILL
 62
3
 10
1474.439
 20
-7815.125
 30
-657.117
 70
    32
  0
VERTEX
  8
T59SSILL
 62
3
 10
1464.909
 20
-7813.601
 30
-657.097
 70
    32
  0
VERTEX
  8
T59SSILL
 62
3
 10
1462.022
 20
-7809.317
 30
-657.078
 70
    32
  0
VERTEX
  8
T59SSILL
 62
3
 10
1461.658
 20
-7804.935
 30
-657.062
 70
    32
  0
VERTEX
  8
T59SSILL
 62
3
 10
1405.827
 20
-7811.229
 30
-656.998
 70
    32
  0
VERTEX
  8
T59SSILL
 62
3
 10
1423.017
 20
-7905.082
 30
-657.350
 70
    32
  0
VERTEX
  8
T59SSILL
 62
3
 10
1430.323
 20
-8036.020
 30
-657.816
 70
    32
  0
VERTEX
  8
T59SSILL
 62
3
 10
1482.936
 20
-8085.683
 30
-657.859
 70
    32
  0
VERTEX
  8
T59SSILL
 62
3
 10
1481.232
 20
-8074.006
 30
-657.877
 70
    32
  0
SEQEND
  8
T59SSILL
  0
POLYLINE
  8
T59SSILL
 62
3
 66
     1
 70
     9
  0
VERTEX
  8
T59SSILL
 62
3
 10
1401.916
 20
-7773.009
 30
-656.859
 70
    32
  0
VERTEX
  8
T59SSILL
 62
3
 10
1423.235
 20
-7779.177
 30
-656.913
 70
    32
  0
VERTEX
  8
T59SSILL
 62
3
 10
1432.221
 20
-7786.065
 30
-656.951
 70
    32
  0
VERTEX
  8
T59SSILL
 62
3
 10
1447.154
 20
-7784.758
 30
-656.970
 70
    32
  0
VERTEX
  8
T59SSILL
 62
3
 10
1451.302
 20
-7795.258
 30
-657.013
 70
    32
  0
VERTEX
  8
T59SSILL
 62
3
 10
1403.273
 20
-7801.735
 30
-656.962
 70
    32
  0
VERTEX
  8
T59SSILL
 62
3
 10
1402.708
 20
-7794.690
 30
-656.936
 70
    32
  0
VERTEX
  8
T59SSILL
 62
3
 10
1397.681
 20
-7777.156
 30
-656.868
 70
    32
  0
SEQEND
  8
T59SSILL
  0
POLYLINE
  8
T59SSILL
 62
3
 66
     1
 70
     9
  0
VERTEX
  8
T59SSILL
 62
3
 10
1463.219
 20
-7780.686
 30
-656.980
 70
    32
  0
VERTEX
  8
T59SSILL
 62
3
 10
1486.923
 20
-7787.611
 30
-657.041
 70
    32
  0
VERTEX
  8
T59SSILL
 62
3
 10
1500.982
 20
-7786.289
 30
-657.058
 70
    32
  0
VERTEX
  8
T59SSILL
 62
3
 10
1510.266
 20
-7782.699
 30
-657.060
 70
    32
  0
VERTEX
  8
T59SSILL
 62
3
 10
1502.293
 20
-7840.759
 30
-657.249
 70
    32
  0
VERTEX
  8
T59SSILL
 62
3
 10
1498.158
 20
-7843.106
 30
-657.251
 70
    32
  0
SEQEND
  8
T59SSILL
  0
POLYLINE
  8
T59SSILL
 62
3
 66
     1
 70
     9
  0
VERTEX
  8
T59SSILL
 62
3
 10
1423.542
 20
-7710.679
 30
-656.676
 70
    32
  0
VERTEX
  8
T59SSILL
 62
3
 10
1432.537
 20
-7703.409
 30
-656.665
 70
    32
  0
VERTEX
  8
T59SSILL
 62
3
 10
1437.948
 20
-7706.405
 30
-656.683
 70
    32
  0
VERTEX
  8
T59SSILL
 62
3
 10
1436.548
 20
-7727.296
 30
-656.754
 70
    32
  0
VERTEX
  8
T59SSILL
 62
3
 10
1433.821
 20
-7730.244
 30
-656.760
 70
    32
  0
VERTEX
  8
T59SSILL
 62
3
 10
1422.943
 20
-7710.897
 30
-656.676
 70
    32
  0
SEQEND
  8
T59SSILL
  0
POLYLINE
  8
T59SSILL
 62
3
 66
     1
 70
     9
  0
VERTEX
  8
T59SSILL
 62
3
 10
1413.188
 20
-7731.141
 30
-656.731
 70
    32
  0
VERTEX
  8
T59SSILL
 62
3
 10
1418.616
 20
-7735.205
 30
-656.753
 70
    32
  0
VERTEX
  8
T59SSILL
 62
3
 10
1421.434
 20
-7735.217
 30
-656.758
 70
    32
  0
VERTEX
  8
T59SSILL
 62
3
 10
1424.425
 20
-7738.452
 30
-656.774
 70
    32
  0
VERTEX
  8
T59SSILL
 62
3
 10
1422.927
 20
-7744.290
 30
-656.792
 70
    32
  0
VERTEX
  8
T59SSILL
 62
3
 10
1423.816
 20
-7752.829
 30
-656.823
 70
    32
  0
VERTEX
  8
T59SSILL
 62
3
 10
1418.751
 20
-7766.868
 30
-656.864
 70
    32
  0
VERTEX
  8
T59SSILL
 62
3
 10
1401.909
 20
-7760.915
 30
-656.817
 70
    32
  0
VERTEX
  8
T59SSILL
 62
3
 10
1394.099
 20
-7754.904
 30
-656.786
 70
    32
  0
VERTEX
  8
T59SSILL
 62
3
 10
1390.095
 20
-7736.845
 30
-656.717
 70
    32
  0
VERTEX
  8
T59SSILL
 62
3
 10
1401.346
 20
-7734.066
 30
-656.723
 70
    32
  0
SEQEND
  8
T59SSILL
  0
POLYLINE
  8
T59SSILL
 62
3
 66
     1
 70
     9
  0
VERTEX
  8
T59SSILL
 62
3
 10
1381.069
 20
-7652.970
 30
-656.412
 70
    32
  0
VERTEX
  8
T59SSILL
 62
3
 10
1419.102
 20
-7720.809
 30
-656.704
 70
    32
  0
VERTEX
  8
T59SSILL
 62
3
 10
1387.730
 20
-7726.567
 30
-656.678
 70
    32
  0
VERTEX
  8
T59SSILL
 62
3
 10
1374.068
 20
-7656.085
 30
-656.413
 70
    32
  0
SEQEND
  8
T59SSILL
  0
POLYLINE
  8
T59SSILL
 62
3
 66
     1
 70
     9
  0
VERTEX
  8
T59SSILL
 62
3
 10
1256.820
 20
-7585.053
 30
-656.079
 70
    32
  0
VERTEX
  8
T59SSILL
 62
3
 10
1255.552
 20
-7580.681
 30
-656.064
 70
    32
  0
VERTEX
  8
T59SSILL
 62
3
 10
1265.949
 20
-7573.304
 30
-656.051
 70
    32
  0
VERTEX
  8
T59SSILL
 62
3
 10
1274.289
 20
-7575.712
 30
-656.066
 70
    32
  0
VERTEX
  8
T59SSILL
 62
3
 10
1280.410
 20
-7575.435
 30
-656.071
 70
    32
  0
VERTEX
  8
T59SSILL
 62
3
 10
1323.773
 20
-7593.181
 30
-656.166
 70
    32
  0
VERTEX
  8
T59SSILL
 62
3
 10
1331.005
 20
-7579.999
 30
-656.131
 70
    32
  0
VERTEX
  8
T59SSILL
 62
3
 10
1328.298
 20
-7577.089
 30
-656.120
 70
    32
  0
VERTEX
  8
T59SSILL
 62
3
 10
1330.424
 20
-7573.344
 30
-656.110
 70
    32
  0
VERTEX
  8
T59SSILL
 62
3
 10
1323.724
 20
-7565.386
 30
-656.079
 70
    32
  0
VERTEX
  8
T59SSILL
 62
3
 10
1307.541
 20
-7569.222
 30
-656.076
 70
    32
  0
VERTEX
  8
T59SSILL
 62
3
 10
1294.914
 20
-7565.305
 30
-656.053
 70
    32
  0
VERTEX
  8
T59SSILL
 62
3
 10
1287.147
 20
-7558.262
 30
-656.024
 70
    32
  0
VERTEX
  8
T59SSILL
 62
3
 10
1318.508
 20
-7536.010
 30
-655.984
 70
    32
  0
VERTEX
  8
T59SSILL
 62
3
 10
1357.957
 20
-7612.285
 30
-656.256
 70
    32
  0
VERTEX
  8
T59SSILL
 62
3
 10
1374.560
 20
-7698.833
 30
-656.563
 70
    32
  0
VERTEX
  8
T59SSILL
 62
3
 10
1367.654
 20
-7703.618
 30
-656.570
 70
    32
  0
VERTEX
  8
T59SSILL
 62
3
 10
1372.510
 20
-7710.473
 30
-656.601
 70
    32
  0
VERTEX
  8
T59SSILL
 62
3
 10
1376.388
 20
-7707.772
 30
-656.597
 70
    32
  0
VERTEX
  8
T59SSILL
 62
3
 10
1386.926
 20
-7761.518
 30
-656.799
 70
    32
  0
VERTEX
  8
T59SSILL
 62
3
 10
1294.966
 20
-7597.491
 30
-656.152
 70
    32
  0
VERTEX
  8
T59SSILL
 62
3
 10
1288.983
 20
-7601.134
 30
-656.158
 70
    32
  0
VERTEX
  8
T59SSILL
 62
3
 10
1327.794
 20
-7670.360
 30
-656.408
 70
    32
  0
VERTEX
  8
T59SSILL
 62
3
 10
1322.022
 20
-7674.324
 30
-656.415
 70
    32
  0
VERTEX
  8
T59SSILL
 62
3
 10
1326.413
 20
-7681.014
 30
-656.440
 70
    32
  0
VERTEX
  8
T59SSILL
 62
3
 10
1331.723
 20
-7677.367
 30
-656.434
 70
    32
  0
VERTEX
  8
T59SSILL
 62
3
 10
1392.170
 20
-7785.188
 30
-656.889
 70
    32
  0
VERTEX
  8
T59SSILL
 62
3
 10
1403.039
 20
-7840.795
 30
-657.098
 70
    32
  0
VERTEX
  8
T59SSILL
 62
3
 10
1397.074
 20
-7841.658
 30
-657.092
 70
    32
  0
VERTEX
  8
T59SSILL
 62
3
 10
1399.090
 20
-7849.813
 30
-657.124
 70
    32
  0
VERTEX
  8
T59SSILL
 62
3
 10
1404.662
 20
-7849.451
 30
-657.130
 70
    32
  0
VERTEX
  8
T59SSILL
 62
3
 10
1407.758
 20
-7867.302
 30
-657.196
 70
    32
  0
VERTEX
  8
T59SSILL
 62
3
 10
1371.386
 20
-7873.764
 30
-657.169
 70
    32
  0
VERTEX
  8
T59SSILL
 62
3
 10
1328.685
 20
-7904.902
 30
-657.220
 70
    32
  0
VERTEX
  8
T59SSILL
 62
3
 10
1321.858
 20
-7912.331
 30
-657.236
 70
    32
  0
VERTEX
  8
T59SSILL
 62
3
 10
1317.256
 20
-7922.686
 30
-657.266
 70
    32
  0
VERTEX
  8
T59SSILL
 62
3
 10
1317.418
 20
-7934.992
 30
-657.309
 70
    32
  0
VERTEX
  8
T59SSILL
 62
3
 10
1201.567
 20
-7827.673
 30
-656.779
 70
    32
  0
VERTEX
  8
T59SSILL
 62
3
 10
1187.057
 20
-7728.422
 30
-656.459
 70
    32
  0
VERTEX
  8
T59SSILL
 62
3
 10
1196.934
 20
-7714.464
 30
-656.424
 70
    32
  0
VERTEX
  8
T59SSILL
 62
3
 10
1217.471
 20
-7712.987
 30
-656.439
 70
    32
  0
VERTEX
  8
T59SSILL
 62
3
 10
1215.971
 20
-7704.351
 30
-656.411
 70
    32
  0
VERTEX
  8
T59SSILL
 62
3
 10
1201.941
 20
-7703.924
 30
-656.396
 70
    32
  0
VERTEX
  8
T59SSILL
 62
3
 10
1196.633
 20
-7701.070
 30
-656.383
 70
    32
  0
VERTEX
  8
T59SSILL
 62
3
 10
1196.634
 20
-7622.488
 30
-656.139
 70
    32
  0
VERTEX
  8
T59SSILL
 62
3
 10
1238.161
 20
-7593.021
 30
-656.086
 70
    32
  0
VERTEX
  8
T59SSILL
 62
3
 10
1251.433
 20
-7595.359
 30
-656.106
 70
    32
  0
VERTEX
  8
T59SSILL
 62
3
 10
1257.598
 20
-7601.105
 30
-656.129
 70
    32
  0
VERTEX
  8
T59SSILL
 62
3
 10
1265.275
 20
-7594.065
 30
-656.115
 70
    32
  0
SEQEND
  8
T59SSILL
  0
POLYLINE
  8
T59SSILL
 62
3
 66
     1
 70
     9
  0
VERTEX
  8
T59SSILL
 62
3
 10
999.894
 20
-6926.619
 30
-653.766
 70
    32
  0
VERTEX
  8
T59SSILL
 62
3
 10
1005.461
 20
-6916.429
 30
-653.717
 70
    32
  0
VERTEX
  8
T59SSILL
 62
3
 10
1011.928
 20
-6910.288
 30
-653.680
 70
    32
  0
VERTEX
  8
T59SSILL
 62
3
 10
1106.259
 20
-6843.661
 30
-653.276
 70
    32
  0
VERTEX
  8
T59SSILL
 62
3
 10
1110.240
 20
-6844.007
 30
-653.276
 70
    32
  0
VERTEX
  8
T59SSILL
 62
3
 10
1112.036
 20
-6842.045
 30
-653.270
 70
    32
  0
VERTEX
  8
T59SSILL
 62
3
 10
1121.417
 20
-6839.691
 30
-653.261
 70
    32
  0
VERTEX
  8
T59SSILL
 62
3
 10
1135.955
 20
-6841.250
 30
-653.264
 70
    32
  0
VERTEX
  8
T59SSILL
 62
3
 10
1158.415
 20
-6853.266
 30
-653.299
 70
    32
  0
VERTEX
  8
T59SSILL
 62
3
 10
1157.255
 20
-6859.015
 30
-653.317
 70
    32
  0
VERTEX
  8
T59SSILL
 62
3
 10
1159.057
 20
-6861.216
 30
-653.323
 70
    32
  0
VERTEX
  8
T59SSILL
 62
3
 10
1164.751
 20
-6861.187
 30
-653.323
 70
    32
  0
VERTEX
  8
T59SSILL
 62
3
 10
1190.633
 20
-6896.816
 30
-653.430
 70
    32
  0
VERTEX
  8
T59SSILL
 62
3
 10
1188.414
 20
-6901.746
 30
-653.450
 70
    32
  0
VERTEX
  8
T59SSILL
 62
3
 10
1195.224
 20
-6903.476
 30
-653.453
 70
    32
  0
VERTEX
  8
T59SSILL
 62
3
 10
1219.003
 20
-6935.089
 30
-653.570
 70
    32
  0
VERTEX
  8
T59SSILL
 62
3
 10
1218.533
 20
-6940.529
 30
-653.593
 70
    32
  0
VERTEX
  8
T59SSILL
 62
3
 10
1219.952
 20
-6943.979
 30
-653.607
 70
    32
  0
VERTEX
  8
T59SSILL
 62
3
 10
1224.456
 20
-6944.006
 30
-653.604
 70
    32
  0
VERTEX
  8
T59SSILL
 62
3
 10
1248.542
 20
-6976.559
 30
-653.725
 70
    32
  0
VERTEX
  8
T59SSILL
 62
3
 10
1248.117
 20
-6978.515
 30
-653.734
 70
    32
  0
VERTEX
  8
T59SSILL
 62
3
 10
1159.547
 20
-7043.862
 30
-654.056
 70
    32
  0
VERTEX
  8
T59SSILL
 62
3
 10
1150.260
 20
-7037.738
 30
-654.041
 70
    32
  0
VERTEX
  8
T59SSILL
 62
3
 10
1145.363
 20
-7040.587
 30
-654.060
 70
    32
  0
VERTEX
  8
T59SSILL
 62
3
 10
1147.404
 20
-7044.541
 30
-654.075
 70
    32
  0
VERTEX
  8
T59SSILL
 62
3
 10
1145.165
 20
-7052.975
 30
-654.116
 70
    32
  0
VERTEX
  8
T59SSILL
 62
3
 10
1124.107
 20
-7069.307
 30
-654.215
 70
    32
  0
VERTEX
  8
T59SSILL
 62
3
 10
1112.769
 20
-7071.556
 30
-654.240
 70
    32
  0
VERTEX
  8
T59SSILL
 62
3
 10
1113.489
 20
-7076.816
 30
-654.262
 70
    32
  0
VERTEX
  8
T59SSILL
 62
3
 10
1091.127
 20
-7091.317
 30
-654.356
 70
    32
  0
VERTEX
  8
T59SSILL
 62
3
 10
1084.881
 20
-7100.362
 30
-654.404
 70
    32
  0
VERTEX
  8
T59SSILL
 62
3
 10
1082.438
 20
-7111.485
 30
-654.452
 70
    32
  0
VERTEX
  8
T59SSILL
 62
3
 10
1067.068
 20
-7086.366
 30
-654.360
 70
    32
  0
VERTEX
  8
T59SSILL
 62
3
 10
1067.874
 20
-7076.985
 30
-654.322
 70
    32
  0
VERTEX
  8
T59SSILL
 62
3
 10
1065.588
 20
-7072.029
 30
-654.303
 70
    32
  0
VERTEX
  8
T59SSILL
 62
3
 10
1057.108
 20
-7067.098
 30
-654.292
 70
    32
  0
VERTEX
  8
T59SSILL
 62
3
 10
1000.052
 20
-6969.967
 30
-653.936
 70
    32
  0
VERTEX
  8
T59SSILL
 62
3
 10
995.541
 20
-6952.064
 30
-653.866
 70
    32
  0
VERTEX
  8
T59SSILL
 62
3
 10
995.407
 20
-6942.120
 30
-653.831
 70
    32
  0
VERTEX
  8
T59SSILL
 62
3
 10
998.142
 20
-6931.147
 30
-653.786
 70
    32
  0
SEQEND
  8
T59SSILL
  0
POLYLINE
  8
T59SSILL
 62
3
 66
     1
 70
     9
  0
VERTEX
  8
T59SSILL
 62
3
 10
1085.971
 20
-6845.470
 30
-653.284
 70
    32
  0
VERTEX
  8
T59SSILL
 62
3
 10
1079.462
 20
-6854.608
 30
-653.327
 70
    32
  0
VERTEX
  8
T59SSILL
 62
3
 10
1004.416
 20
-6908.246
 30
-653.690
 70
    32
  0
VERTEX
  8
T59SSILL
 62
3
 10
994.567
 20
-6922.385
 30
-653.763
 70
    32
  0
VERTEX
  8
T59SSILL
 62
3
 10
988.958
 20
-6940.073
 30
-653.839
 70
    32
  0
VERTEX
  8
T59SSILL
 62
3
 10
989.346
 20
-6948.845
 30
-653.869
 70
    32
  0
VERTEX
  8
T59SSILL
 62
3
 10
960.829
 20
-6900.821
 30
-653.702
 70
    32
  0
VERTEX
  8
T59SSILL
 62
3
 10
895.677
 20
-6542.885
 30
-652.823
 70
    32
  0
VERTEX
  8
T59SSILL
 62
3
 10
915.765
 20
-6485.127
 30
-652.615
 70
    32
  0
VERTEX
  8
T59SSILL
 62
3
 10
925.838
 20
-6478.242
 30
-652.573
 70
    32
  0
VERTEX
  8
T59SSILL
 62
3
 10
1014.484
 20
-6585.681
 30
-652.672
 70
    32
  0
VERTEX
  8
T59SSILL
 62
3
 10
1088.675
 20
-6827.183
 30
-653.227
 70
    32
  0
VERTEX
  8
T59SSILL
 62
3
 10
1089.222
 20
-6833.088
 30
-653.245
 70
    32
  0
VERTEX
  8
T59SSILL
 62
3
 10
1087.068
 20
-6842.593
 30
-653.275
 70
    32
  0
SEQEND
  8
T59SSILL
  0
POLYLINE
  8
T59SSILL
 62
3
 66
     1
 70
     9
  0
VERTEX
  8
T59SSILL
 62
3
 10
630.124
 20
-5657.878
 30
-650.899
 70
    32
  0
VERTEX
  8
T59SSILL
 62
3
 10
626.852
 20
-5655.248
 30
-650.902
 70
    32
  0
VERTEX
  8
T59SSILL
 62
3
 10
625.443
 20
-5648.386
 30
-650.885
 70
    32
  0
VERTEX
  8
T59SSILL
 62
3
 10
629.518
 20
-5642.993
 30
-650.854
 70
    32
  0
VERTEX
  8
T59SSILL
 62
3
 10
636.127
 20
-5651.464
 30
-650.861
 70
    32
  0
VERTEX
  8
T59SSILL
 62
3
 10
647.744
 20
-5656.621
 30
-650.850
 70
    32
  0
VERTEX
  8
T59SSILL
 62
3
 10
651.561
 20
-5664.090
 30
-650.863
 70
    32
  0
VERTEX
  8
T59SSILL
 62
3
 10
647.124
 20
-5664.855
 30
-650.875
 70
    32
  0
VERTEX
  8
T59SSILL
 62
3
 10
636.423
 20
-5660.463
 30
-650.886
 70
    32
  0
SEQEND
  8
T59SSILL
  0
POLYLINE
  8
T59SSILL
 62
3
 66
     1
 70
     9
  0
VERTEX
  8
T59SSILL
 62
3
 10
654.388
 20
-5677.802
 30
-650.896
 70
    32
  0
VERTEX
  8
T59SSILL
 62
3
 10
644.243
 20
-5686.399
 30
-650.942
 70
    32
  0
VERTEX
  8
T59SSILL
 62
3
 10
642.571
 20
-5685.933
 30
-650.945
 70
    32
  0
VERTEX
  8
T59SSILL
 62
3
 10
638.499
 20
-5688.872
 30
-650.969
 70
    32
  0
VERTEX
  8
T59SSILL
 62
3
 10
642.023
 20
-5676.198
 30
-650.918
 70
    32
  0
VERTEX
  8
T59SSILL
 62
3
 10
648.218
 20
-5674.705
 30
-650.900
 70
    32
  0
SEQEND
  8
T59SSILL
  0
POLYLINE
  8
T59SSILL
 62
3
 66
     1
 70
     9
  0
VERTEX
  8
T59SSILL
 62
3
 10
690.593
 20
-5703.380
 30
-650.888
 70
    32
  0
VERTEX
  8
T59SSILL
 62
3
 10
687.802
 20
-5713.925
 30
-650.925
 70
    32
  0
VERTEX
  8
T59SSILL
 62
3
 10
681.062
 20
-5714.076
 30
-650.940
 70
    32
  0
VERTEX
  8
T59SSILL
 62
3
 10
676.617
 20
-5709.429
 30
-650.936
 70
    32
  0
VERTEX
  8
T59SSILL
 62
3
 10
676.029
 20
-5706.936
 30
-650.931
 70
    32
  0
VERTEX
  8
T59SSILL
 62
3
 10
681.001
 20
-5696.337
 30
-650.890
 70
    32
  0
VERTEX
  8
T59SSILL
 62
3
 10
685.410
 20
-5693.697
 30
-650.872
 70
    32
  0
SEQEND
  8
T59SSILL
  0
POLYLINE
  8
T59SSILL
 62
3
 66
     1
 70
     9
  0
VERTEX
  8
T59SSILL
 62
3
 10
726.121
 20
-5673.609
 30
-650.766
 70
    32
  0
VERTEX
  8
T59SSILL
 62
3
 10
828.064
 20
-5688.622
 30
-650.803
 70
    32
  0
VERTEX
  8
T59SSILL
 62
3
 10
783.005
 20
-5723.665
 30
-650.864
 70
    32
  0
VERTEX
  8
T59SSILL
 62
3
 10
767.879
 20
-5744.801
 30
-650.902
 70
    32
  0
VERTEX
  8
T59SSILL
 62
3
 10
763.378
 20
-5755.471
 30
-650.921
 70
    32
  0
VERTEX
  8
T59SSILL
 62
3
 10
760.041
 20
-5770.098
 30
-650.947
 70
    32
  0
VERTEX
  8
T59SSILL
 62
3
 10
753.693
 20
-5740.187
 30
-650.891
 70
    32
  0
VERTEX
  8
T59SSILL
 62
3
 10
722.500
 20
-5676.300
 30
-650.770
 70
    32
  0
SEQEND
  8
T59SSILL
  0
POLYLINE
  8
T59SSILL
 62
3
 66
     1
 70
     9
  0
VERTEX
  8
T59SSILL
 62
3
 10
703.530
 20
-5460.957
 30
-650.371
 70
    32
  0
VERTEX
  8
T59SSILL
 62
3
 10
670.417
 20
-5483.824
 30
-650.410
 70
    32
  0
VERTEX
  8
T59SSILL
 62
3
 10
668.707
 20
-5482.822
 30
-650.408
 70
    32
  0
VERTEX
  8
T59SSILL
 62
3
 10
671.530
 20
-5475.349
 30
-650.395
 70
    32
  0
VERTEX
  8
T59SSILL
 62
3
 10
677.420
 20
-5465.639
 30
-650.377
 70
    32
  0
VERTEX
  8
T59SSILL
 62
3
 10
695.823
 20
-5457.983
 30
-650.365
 70
    32
  0
SEQEND
  8
T59SSILL
  0
POLYLINE
  8
T59SSILL
 62
3
 66
     1
 70
     9
  0
VERTEX
  8
T59SSILL
 62
3
 10
661.716
 20
-5962.686
 30
-651.755
 70
    32
  0
VERTEX
  8
T59SSILL
 62
3
 10
655.385
 20
-5945.168
 30
-651.721
 70
    32
  0
VERTEX
  8
T59SSILL
 62
3
 10
648.544
 20
-5939.018
 30
-651.725
 70
    32
  0
VERTEX
  8
T59SSILL
 62
3
 10
639.593
 20
-5948.722
 30
-651.757
 70
    32
  0
VERTEX
  8
T59SSILL
 62
3
 10
636.626
 20
-5957.118
 30
-651.763
 70
    32
  0
VERTEX
  8
T59SSILL
 62
3
 10
637.259
 20
-5964.958
 30
-651.774
 70
    32
  0
VERTEX
  8
T59SSILL
 62
3
 10
643.405
 20
-5967.223
 30
-651.789
 70
    32
  0
VERTEX
  8
T59SSILL
 62
3
 10
645.938
 20
-5986.511
 30
-651.820
 70
    32
  0
VERTEX
  8
T59SSILL
 62
3
 10
638.453
 20
-5993.184
 30
-651.815
 70
    32
  0
VERTEX
  8
T59SSILL
 62
3
 10
640.862
 20
-6025.805
 30
-651.863
 70
    32
  0
VERTEX
  8
T59SSILL
 62
3
 10
643.672
 20
-6036.045
 30
-651.882
 70
    32
  0
VERTEX
  8
T59SSILL
 62
3
 10
649.842
 20
-6044.566
 30
-651.905
 70
    32
  0
VERTEX
  8
T59SSILL
 62
3
 10
656.072
 20
-6046.163
 30
-651.919
 70
    32
  0
VERTEX
  8
T59SSILL
 62
3
 10
661.757
 20
-6045.191
 30
-651.928
 70
    32
  0
VERTEX
  8
T59SSILL
 62
3
 10
668.323
 20
-6041.663
 30
-651.936
 70
    32
  0
VERTEX
  8
T59SSILL
 62
3
 10
670.822
 20
-6036.166
 30
-651.933
 70
    32
  0
VERTEX
  8
T59SSILL
 62
3
 10
670.864
 20
-6011.427
 30
-651.878
 70
    32
  0
VERTEX
  8
T59SSILL
 62
3
 10
672.748
 20
-6005.058
 30
-651.851
 70
    32
  0
VERTEX
  8
T59SSILL
 62
3
 10
672.587
 20
-5996.061
 30
-651.823
 70
    32
  0
VERTEX
  8
T59SSILL
 62
3
 10
676.863
 20
-5982.803
 30
-651.767
 70
    32
  0
VERTEX
  8
T59SSILL
 62
3
 10
675.613
 20
-5969.894
 30
-651.730
 70
    32
  0
SEQEND
  8
T59SSILL
  0
POLYLINE
  8
T59SSILL
 62
3
 66
     1
 70
     9
  0
VERTEX
  8
T59SSILL
 62
3
 10
1219.043
 20
-8105.031
 30
-656.627
 70
    32
  0
VERTEX
  8
T59SSILL
 62
3
 10
1216.876
 20
-8102.808
 30
-656.618
 70
    32
  0
VERTEX
  8
T59SSILL
 62
3
 10
1214.776
 20
-8094.018
 30
-656.601
 70
    32
  0
VERTEX
  8
T59SSILL
 62
3
 10
1222.236
 20
-8091.680
 30
-656.620
 70
    32
  0
VERTEX
  8
T59SSILL
 62
3
 10
1221.825
 20
-8084.436
 30
-656.613
 70
    32
  0
VERTEX
  8
T59SSILL
 62
3
 10
1216.150
 20
-8083.685
 30
-656.593
 70
    32
  0
VERTEX
  8
T59SSILL
 62
3
 10
1213.446
 20
-8078.641
 30
-656.587
 70
    32
  0
VERTEX
  8
T59SSILL
 62
3
 10
1209.923
 20
-8057.212
 30
-656.572
 70
    32
  0
VERTEX
  8
T59SSILL
 62
3
 10
1204.598
 20
-8047.392
 30
-656.537
 70
    32
  0
VERTEX
  8
T59SSILL
 62
3
 10
1197.479
 20
-7838.736
 30
-656.788
 70
    32
  0
VERTEX
  8
T59SSILL
 62
3
 10
1201.296
 20
-7837.592
 30
-656.791
 70
    32
  0
VERTEX
  8
T59SSILL
 62
3
 10
1353.984
 20
-7978.624
 30
-657.457
 70
    32
  0
VERTEX
  8
T59SSILL
 62
3
 10
1388.526
 20
-8007.867
 30
-657.623
 70
    32
  0
VERTEX
  8
T59SSILL
 62
3
 10
1372.927
 20
-8005.885
 30
-657.506
 70
    32
  0
VERTEX
  8
T59SSILL
 62
3
 10
1353.546
 20
-8010.966
 30
-657.379
 70
    32
  0
VERTEX
  8
T59SSILL
 62
3
 10
1348.178
 20
-8009.333
 30
-657.347
 70
    32
  0
VERTEX
  8
T59SSILL
 62
3
 10
1343.896
 20
-8017.203
 30
-657.326
 70
    32
  0
VERTEX
  8
T59SSILL
 62
3
 10
1329.592
 20
-8027.089
 30
-657.248
 70
    32
  0
VERTEX
  8
T59SSILL
 62
3
 10
1320.338
 20
-8013.197
 30
-657.189
 70
    32
  0
VERTEX
  8
T59SSILL
 62
3
 10
1320.148
 20
-7999.856
 30
-657.182
 70
    32
  0
VERTEX
  8
T59SSILL
 62
3
 10
1305.106
 20
-7981.681
 30
-657.087
 70
    32
  0
VERTEX
  8
T59SSILL
 62
3
 10
1298.158
 20
-7985.488
 30
-657.049
 70
    32
  0
VERTEX
  8
T59SSILL
 62
3
 10
1311.506
 20
-8003.596
 30
-657.134
 70
    32
  0
VERTEX
  8
T59SSILL
 62
3
 10
1311.787
 20
-8005.910
 30
-657.136
 70
    32
  0
VERTEX
  8
T59SSILL
 62
3
 10
1303.305
 20
-8018.191
 30
-657.093
 70
    32
  0
VERTEX
  8
T59SSILL
 62
3
 10
1312.293
 20
-8039.721
 30
-657.154
 70
    32
  0
VERTEX
  8
T59SSILL
 62
3
 10
1297.693
 20
-8050.276
 30
-657.074
 70
    32
  0
VERTEX
  8
T59SSILL
 62
3
 10
1294.654
 20
-8048.680
 30
-657.056
 70
    32
  0
VERTEX
  8
T59SSILL
 62
3
 10
1292.010
 20
-8044.053
 30
-657.039
 70
    32
  0
VERTEX
  8
T59SSILL
 62
3
 10
1287.144
 20
-8045.777
 30
-657.011
 70
    32
  0
VERTEX
  8
T59SSILL
 62
3
 10
1268.005
 20
-8062.188
 30
-656.908
 70
    32
  0
VERTEX
  8
T59SSILL
 62
3
 10
1270.237
 20
-8067.447
 30
-656.917
 70
    32
  0
VERTEX
  8
T59SSILL
 62
3
 10
1268.922
 20
-8070.718
 30
-656.900
 70
    32
  0
VERTEX
  8
T59SSILL
 62
3
 10
1220.730
 20
-8105.562
 30
-656.632
 70
    32
  0
SEQEND
  8
T59SSILL
  0
POLYLINE
  8
T59SSILL
 62
3
 66
     1
 70
     9
  0
VERTEX
  8
T59SSILL
 62
3
 10
3255.522
 20
-10328.868
 30
-659.900
 70
    32
  0
VERTEX
  8
T59SSILL
 62
3
 10
3216.525
 20
-10273.541
 30
-659.748
 70
    32
  0
VERTEX
  8
T59SSILL
 62
3
 10
3218.784
 20
-10269.469
 30
-659.749
 70
    32
  0
VERTEX
  8
T59SSILL
 62
3
 10
3397.542
 20
-10298.743
 30
-660.191
 70
    32
  0
VERTEX
  8
T59SSILL
 62
3
 10
3324.962
 20
-10352.157
 30
-660.085
 70
    32
  0
VERTEX
  8
T59SSILL
 62
3
 10
3303.109
 20
-10358.167
 30
-660.042
 70
    32
  0
VERTEX
  8
T59SSILL
 62
3
 10
3283.288
 20
-10354.143
 30
-659.992
 70
    32
  0
VERTEX
  8
T59SSILL
 62
3
 10
3269.943
 20
-10345.680
 30
-659.952
 70
    32
  0
SEQEND
  8
T59SSILL
  0
POLYLINE
  8
T59SSILL
 62
3
 66
     1
 70
     9
  0
VERTEX
  8
T59SSILL
 62
3
 10
523.023
 20
-5663.638
 30
-651.154
 70
    32
  0
VERTEX
  8
T59SSILL
 62
3
 10
541.149
 20
-5628.405
 30
-651.108
 70
    32
  0
VERTEX
  8
T59SSILL
 62
3
 10
542.353
 20
-5631.171
 30
-651.113
 70
    32
  0
VERTEX
  8
T59SSILL
 62
3
 10
548.134
 20
-5635.692
 30
-651.108
 70
    32
  0
VERTEX
  8
T59SSILL
 62
3
 10
549.867
 20
-5641.089
 30
-651.119
 70
    32
  0
VERTEX
  8
T59SSILL
 62
3
 10
535.106
 20
-5664.262
 30
-651.177
 70
    32
  0
VERTEX
  8
T59SSILL
 62
3
 10
524.769
 20
-5668.719
 30
-651.164
 70
    32
  0
VERTEX
  8
T59SSILL
 62
3
 10
521.020
 20
-5667.997
 30
-651.156
 70
    32
  0
SEQEND
  8
T59SSILL
  0
POLYLINE
  8
T59SSILL
 62
3
 66
     1
 70
     9
  0
VERTEX
  8
T59SSILL
 62
3
 10
715.268
 20
-5421.203
 30
-650.299
 70
    32
  0
VERTEX
  8
T59SSILL
 62
3
 10
700.631
 20
-5438.054
 30
-650.328
 70
    32
  0
VERTEX
  8
T59SSILL
 62
3
 10
717.847
 20
-5451.519
 30
-650.355
 70
    32
  0
VERTEX
  8
T59SSILL
 62
3
 10
717.890
 20
-5450.100
 30
-650.352
 70
    32
  0
VERTEX
  8
T59SSILL
 62
3
 10
721.327
 20
-5439.871
 30
-650.334
 70
    32
  0
SEQEND
  8
T59SSILL
  0
POLYLINE
  8
T59SSILL
 62
3
 66
     1
 70
     9
  0
VERTEX
  8
T59SSILL
 62
3
 10
1296.630
 20
-6942.722
 30
-653.559
 70
    32
  0
VERTEX
  8
T59SSILL
 62
3
 10
1257.059
 20
-6971.917
 30
-653.701
 70
    32
  0
VERTEX
  8
T59SSILL
 62
3
 10
1232.059
 20
-6938.732
 30
-653.578
 70
    32
  0
VERTEX
  8
T59SSILL
 62
3
 10
1232.218
 20
-6932.851
 30
-653.553
 70
    32
  0
VERTEX
  8
T59SSILL
 62
3
 10
1226.098
 20
-6930.813
 30
-653.549
 70
    32
  0
VERTEX
  8
T59SSILL
 62
3
 10
1202.395
 20
-6897.136
 30
-653.430
 70
    32
  0
VERTEX
  8
T59SSILL
 62
3
 10
1204.540
 20
-6894.020
 30
-653.420
 70
    32
  0
VERTEX
  8
T59SSILL
 62
3
 10
1204.063
 20
-6890.013
 30
-653.407
 70
    32
  0
VERTEX
  8
T59SSILL
 62
3
 10
1198.420
 20
-6891.982
 30
-653.414
 70
    32
  0
VERTEX
  8
T59SSILL
 62
3
 10
1173.224
 20
-6856.794
 30
-653.308
 70
    32
  0
VERTEX
  8
T59SSILL
 62
3
 10
1174.128
 20
-6851.919
 30
-653.293
 70
    32
  0
VERTEX
  8
T59SSILL
 62
3
 10
1171.452
 20
-6849.463
 30
-653.285
 70
    32
  0
VERTEX
  8
T59SSILL
 62
3
 10
1166.636
 20
-6849.247
 30
-653.285
 70
    32
  0
VERTEX
  8
T59SSILL
 62
3
 10
1151.372
 20
-6838.082
 30
-653.252
 70
    32
  0
VERTEX
  8
T59SSILL
 62
3
 10
1136.399
 20
-6831.025
 30
-653.232
 70
    32
  0
VERTEX
  8
T59SSILL
 62
3
 10
1131.847
 20
-6830.834
 30
-653.232
 70
    32
  0
VERTEX
  8
T59SSILL
 62
3
 10
1127.766
 20
-6828.920
 30
-653.227
 70
    32
  0
VERTEX
  8
T59SSILL
 62
3
 10
1148.298
 20
-6813.749
 30
-653.177
 70
    32
  0
VERTEX
  8
T59SSILL
 62
3
 10
1154.211
 20
-6813.614
 30
-653.176
 70
    32
  0
VERTEX
  8
T59SSILL
 62
3
 10
1225.486
 20
-6826.523
 30
-653.211
 70
    32
  0
VERTEX
  8
T59SSILL
 62
3
 10
1227.527
 20
-6830.594
 30
-653.221
 70
    32
  0
VERTEX
  8
T59SSILL
 62
3
 10
1226.360
 20
-6836.393
 30
-653.238
 70
    32
  0
VERTEX
  8
T59SSILL
 62
3
 10
1227.809
 20
-6843.205
 30
-653.259
 70
    32
  0
VERTEX
  8
T59SSILL
 62
3
 10
1231.714
 20
-6847.424
 30
-653.271
 70
    32
  0
VERTEX
  8
T59SSILL
 62
3
 10
1242.464
 20
-6867.482
 30
-653.332
 70
    32
  0
VERTEX
  8
T59SSILL
 62
3
 10
1254.561
 20
-6880.950
 30
-653.373
 70
    32
  0
VERTEX
  8
T59SSILL
 62
3
 10
1257.751
 20
-6887.892
 30
-653.394
 70
    32
  0
VERTEX
  8
T59SSILL
 62
3
 10
1276.101
 20
-6911.832
 30
-653.466
 70
    32
  0
VERTEX
  8
T59SSILL
 62
3
 10
1277.418
 20
-6916.551
 30
-653.480
 70
    32
  0
VERTEX
  8
T59SSILL
 62
3
 10
1291.850
 20
-6930.803
 30
-653.523
 70
    32
  0
SEQEND
  8
T59SSILL
  0
POLYLINE
  8
T59SSILL
 62
3
 66
     1
 70
     9
  0
VERTEX
  8
T59SSILL
 62
3
 10
1222.543
 20
-7354.456
 30
-655.333
 70
    32
  0
VERTEX
  8
T59SSILL
 62
3
 10
1143.635
 20
-7217.338
 30
-654.836
 70
    32
  0
VERTEX
  8
T59SSILL
 62
3
 10
1148.737
 20
-7211.549
 30
-654.814
 70
    32
  0
VERTEX
  8
T59SSILL
 62
3
 10
1150.087
 20
-7205.363
 30
-654.785
 70
    32
  0
VERTEX
  8
T59SSILL
 62
3
 10
1125.881
 20
-7161.359
 30
-654.621
 70
    32
  0
VERTEX
  8
T59SSILL
 62
3
 10
1115.308
 20
-7161.109
 30
-654.634
 70
    32
  0
VERTEX
  8
T59SSILL
 62
3
 10
1109.444
 20
-7158.196
 30
-654.622
 70
    32
  0
VERTEX
  8
T59SSILL
 62
3
 10
1089.627
 20
-7123.165
 30
-654.495
 70
    32
  0
VERTEX
  8
T59SSILL
 62
3
 10
1088.546
 20
-7115.525
 30
-654.466
 70
    32
  0
VERTEX
  8
T59SSILL
 62
3
 10
1089.593
 20
-7107.773
 30
-654.431
 70
    32
  0
VERTEX
  8
T59SSILL
 62
3
 10
1096.425
 20
-7095.048
 30
-654.365
 70
    32
  0
VERTEX
  8
T59SSILL
 62
3
 10
1118.831
 20
-7083.480
 30
-654.285
 70
    32
  0
VERTEX
  8
T59SSILL
 62
3
 10
1121.938
 20
-7087.127
 30
-654.297
 70
    32
  0
VERTEX
  8
T59SSILL
 62
3
 10
1135.534
 20
-7084.016
 30
-654.266
 70
    32
  0
VERTEX
  8
T59SSILL
 62
3
 10
1137.418
 20
-7082.775
 30
-654.258
 70
    32
  0
VERTEX
  8
T59SSILL
 62
3
 10
1138.568
 20
-7078.778
 30
-654.238
 70
    32
  0
VERTEX
  8
T59SSILL
 62
3
 10
1138.545
 20
-7072.083
 30
-654.209
 70
    32
  0
VERTEX
  8
T59SSILL
 62
3
 10
1136.874
 20
-7068.882
 30
-654.197
 70
    32
  0
VERTEX
  8
T59SSILL
 62
3
 10
1145.670
 20
-7062.801
 30
-654.158
 70
    32
  0
VERTEX
  8
T59SSILL
 62
3
 10
1158.275
 20
-7079.206
 30
-654.215
 70
    32
  0
VERTEX
  8
T59SSILL
 62
3
 10
1173.538
 20
-7090.621
 30
-654.246
 70
    32
  0
VERTEX
  8
T59SSILL
 62
3
 10
1189.435
 20
-7121.812
 30
-654.363
 70
    32
  0
VERTEX
  8
T59SSILL
 62
3
 10
1192.814
 20
-7134.774
 30
-654.416
 70
    32
  0
VERTEX
  8
T59SSILL
 62
3
 10
1166.158
 20
-7154.968
 30
-654.540
 70
    32
  0
VERTEX
  8
T59SSILL
 62
3
 10
1168.938
 20
-7159.985
 30
-654.559
 70
    32
  0
VERTEX
  8
T59SSILL
 62
3
 10
1194.305
 20
-7141.476
 30
-654.444
 70
    32
  0
VERTEX
  8
T59SSILL
 62
3
 10
1201.945
 20
-7175.759
 30
-654.586
 70
    32
  0
VERTEX
  8
T59SSILL
 62
3
 10
1201.989
 20
-7178.825
 30
-654.600
 70
    32
  0
VERTEX
  8
T59SSILL
 62
3
 10
1198.530
 20
-7181.871
 30
-654.618
 70
    32
  0
VERTEX
  8
T59SSILL
 62
3
 10
1210.452
 20
-7240.006
 30
-654.860
 70
    32
  0
VERTEX
  8
T59SSILL
 62
3
 10
1209.563
 20
-7252.828
 30
-654.918
 70
    32
  0
VERTEX
  8
T59SSILL
 62
3
 10
1206.785
 20
-7257.067
 30
-654.940
 70
    32
  0
VERTEX
  8
T59SSILL
 62
3
 10
1212.170
 20
-7267.047
 30
-654.978
 70
    32
  0
VERTEX
  8
T59SSILL
 62
3
 10
1210.995
 20
-7275.299
 30
-655.016
 70
    32
  0
VERTEX
  8
T59SSILL
 62
3
 10
1211.934
 20
-7285.942
 30
-655.062
 70
    32
  0
VERTEX
  8
T59SSILL
 62
3
 10
1218.588
 20
-7303.501
 30
-655.131
 70
    32
  0
VERTEX
  8
T59SSILL
 62
3
 10
1225.396
 20
-7316.180
 30
-655.178
 70
    32
  0
VERTEX
  8
T59SSILL
 62
3
 10
1224.924
 20
-7343.270
 30
-655.299
 70
    32
  0
SEQEND
  8
T59SSILL
  0
POLYLINE
  8
T59SSILL
 62
3
 66
     1
 70
     9
  0
VERTEX
  8
T59SSILL
 62
3
 10
1257.060
 20
-7462.167
 30
-655.699
 70
    32
  0
VERTEX
  8
T59SSILL
 62
3
 10
1264.676
 20
-7476.665
 30
-655.750
 70
    32
  0
VERTEX
  8
T59SSILL
 62
3
 10
1270.146
 20
-7480.133
 30
-655.766
 70
    32
  0
VERTEX
  8
T59SSILL
 62
3
 10
1274.839
 20
-7486.218
 30
-655.789
 70
    32
  0
VERTEX
  8
T59SSILL
 62
3
 10
1275.462
 20
-7493.596
 30
-655.813
 70
    32
  0
VERTEX
  8
T59SSILL
 62
3
 10
1303.402
 20
-7511.500
 30
-655.894
 70
    32
  0
VERTEX
  8
T59SSILL
 62
3
 10
1279.689
 20
-7469.117
 30
-655.741
 70
    32
  0
VERTEX
  8
T59SSILL
 62
3
 10
1273.622
 20
-7473.139
 30
-655.748
 70
    32
  0
VERTEX
  8
T59SSILL
 62
3
 10
1269.114
 20
-7466.902
 30
-655.724
 70
    32
  0
VERTEX
  8
T59SSILL
 62
3
 10
1275.826
 20
-7461.999
 30
-655.715
 70
    32
  0
VERTEX
  8
T59SSILL
 62
3
 10
1262.383
 20
-7438.699
 30
-655.631
 70
    32
  0
VERTEX
  8
T59SSILL
 62
3
 10
1254.741
 20
-7452.368
 30
-655.666
 70
    32
  0
SEQEND
  8
T59SSILL
  0
POLYLINE
  8
T59SSILL
 62
3
 66
     1
 70
     9
  0
VERTEX
  8
T59SSILL
 62
3
 10
1248.865
 20
-7486.300
 30
-655.766
 70
    32
  0
VERTEX
  8
T59SSILL
 62
3
 10
1303.187
 20
-7518.686
 30
-655.916
 70
    32
  0
VERTEX
  8
T59SSILL
 62
3
 10
1306.091
 20
-7523.963
 30
-655.935
 70
    32
  0
VERTEX
  8
T59SSILL
 62
3
 10
1306.382
 20
-7532.352
 30
-655.961
 70
    32
  0
VERTEX
  8
T59SSILL
 62
3
 10
1248.228
 20
-7573.617
 30
-656.036
 70
    32
  0
VERTEX
  8
T59SSILL
 62
3
 10
1235.667
 20
-7555.963
 30
-655.969
 70
    32
  0
VERTEX
  8
T59SSILL
 62
3
 10
1228.668
 20
-7557.236
 30
-655.967
 70
    32
  0
VERTEX
  8
T59SSILL
 62
3
 10
1226.443
 20
-7561.055
 30
-655.977
 70
    32
  0
VERTEX
  8
T59SSILL
 62
3
 10
1235.016
 20
-7576.012
 30
-656.031
 70
    32
  0
VERTEX
  8
T59SSILL
 62
3
 10
1235.016
 20
-7582.992
 30
-656.052
 70
    32
  0
VERTEX
  8
T59SSILL
 62
3
 10
1195.471
 20
-7611.079
 30
-656.103
 70
    32
  0
VERTEX
  8
T59SSILL
 62
3
 10
1175.066
 20
-7607.406
 30
-656.073
 70
    32
  0
VERTEX
  8
T59SSILL
 62
3
 10
1156.934
 20
-7449.021
 30
-655.566
 70
    32
  0
VERTEX
  8
T59SSILL
 62
3
 10
1185.175
 20
-7314.254
 30
-655.175
 70
    32
  0
VERTEX
  8
T59SSILL
 62
3
 10
1190.501
 20
-7312.846
 30
-655.175
 70
    32
  0
VERTEX
  8
T59SSILL
 62
3
 10
1221.039
 20
-7365.522
 30
-655.366
 70
    32
  0
VERTEX
  8
T59SSILL
 62
3
 10
1221.511
 20
-7370.406
 30
-655.382
 70
    32
  0
VERTEX
  8
T59SSILL
 62
3
 10
1234.838
 20
-7391.695
 30
-655.460
 70
    32
  0
VERTEX
  8
T59SSILL
 62
3
 10
1235.585
 20
-7402.900
 30
-655.495
 70
    32
  0
VERTEX
  8
T59SSILL
 62
3
 10
1240.428
 20
-7409.310
 30
-655.520
 70
    32
  0
VERTEX
  8
T59SSILL
 62
3
 10
1242.726
 20
-7417.209
 30
-655.546
 70
    32
  0
VERTEX
  8
T59SSILL
 62
3
 10
1243.339
 20
-7442.481
 30
-655.625
 70
    32
  0
VERTEX
  8
T59SSILL
 62
3
 10
1241.136
 20
-7448.317
 30
-655.641
 70
    32
  0
VERTEX
  8
T59SSILL
 62
3
 10
1235.943
 20
-7452.666
 30
-655.650
 70
    32
  0
VERTEX
  8
T59SSILL
 62
3
 10
1236.897
 20
-7465.032
 30
-655.689
 70
    32
  0
VERTEX
  8
T59SSILL
 62
3
 10
1239.167
 20
-7471.902
 30
-655.712
 70
    32
  0
VERTEX
  8
T59SSILL
 62
3
 10
1169.790
 20
-7430.547
 30
-655.520
 70
    32
  0
VERTEX
  8
T59SSILL
 62
3
 10
1166.230
 20
-7435.925
 30
-655.534
 70
    32
  0
VERTEX
  8
T59SSILL
 62
3
 10
1242.640
 20
-7482.413
 30
-655.748
 70
    32
  0
VERTEX
  8
T59SSILL
 62
3
 10
1236.030
 20
-7486.887
 30
-655.756
 70
    32
  0
VERTEX
  8
T59SSILL
 62
3
 10
1239.600
 20
-7492.412
 30
-655.776
 70
    32
  0
SEQEND
  8
T59SSILL
  0
POLYLINE
  8
T59SSILL
 62
3
 66
     1
 70
     9
  0
VERTEX
  8
T59SSILL
 62
3
 10
1244.566
 20
-7344.136
 30
-655.277
 70
    32
  0
VERTEX
  8
T59SSILL
 62
3
 10
1266.244
 20
-7381.806
 30
-655.416
 70
    32
  0
VERTEX
  8
T59SSILL
 62
3
 10
1267.564
 20
-7391.450
 30
-655.457
 70
    32
  0
VERTEX
  8
T59SSILL
 62
3
 10
1272.488
 20
-7405.369
 30
-655.512
 70
    32
  0
VERTEX
  8
T59SSILL
 62
3
 10
1288.810
 20
-7431.538
 30
-655.607
 70
    32
  0
VERTEX
  8
T59SSILL
 62
3
 10
1297.531
 20
-7449.312
 30
-655.675
 70
    32
  0
VERTEX
  8
T59SSILL
 62
3
 10
1293.553
 20
-7462.045
 30
-655.732
 70
    32
  0
VERTEX
  8
T59SSILL
 62
3
 10
1293.168
 20
-7476.609
 30
-655.777
 70
    32
  0
VERTEX
  8
T59SSILL
 62
3
 10
1258.951
 20
-7418.909
 30
-655.564
 70
    32
  0
VERTEX
  8
T59SSILL
 62
3
 10
1253.327
 20
-7386.486
 30
-655.454
 70
    32
  0
VERTEX
  8
T59SSILL
 62
3
 10
1246.899
 20
-7372.933
 30
-655.402
 70
    32
  0
VERTEX
  8
T59SSILL
 62
3
 10
1241.368
 20
-7345.307
 30
-655.287
 70
    32
  0
SEQEND
  8
T59SSILL
  0
POLYLINE
  8
T59SSILL
 62
3
 66
     1
 70
     9
  0
VERTEX
  8
T59SSILL
 62
3
 10
1655.253
 20
-8039.931
 30
-658.157
 70
    32
  0
VERTEX
  8
T59SSILL
 62
3
 10
1616.791
 20
-8068.332
 30
-658.181
 70
    32
  0
VERTEX
  8
T59SSILL
 62
3
 10
1607.639
 20
-8061.269
 30
-658.175
 70
    32
  0
VERTEX
  8
T59SSILL
 62
3
 10
1591.250
 20
-8073.679
 30
-658.116
 70
    32
  0
VERTEX
  8
T59SSILL
 62
3
 10
1593.727
 20
-8083.581
 30
-658.102
 70
    32
  0
VERTEX
  8
T59SSILL
 62
3
 10
1571.912
 20
-8101.416
 30
-658.021
 70
    32
  0
VERTEX
  8
T59SSILL
 62
3
 10
1564.976
 20
-8110.146
 30
-657.990
 70
    32
  0
VERTEX
  8
T59SSILL
 62
3
 10
1560.832
 20
-8118.352
 30
-657.965
 70
    32
  0
VERTEX
  8
T59SSILL
 62
3
 10
1556.907
 20
-8134.288
 30
-657.926
 70
    32
  0
VERTEX
  8
T59SSILL
 62
3
 10
1557.134
 20
-8147.382
 30
-657.902
 70
    32
  0
VERTEX
  8
T59SSILL
 62
3
 10
1559.023
 20
-8156.297
 30
-657.893
 70
    32
  0
VERTEX
  8
T59SSILL
 62
3
 10
1500.519
 20
-8101.656
 30
-657.866
 70
    32
  0
VERTEX
  8
T59SSILL
 62
3
 10
1495.673
 20
-8094.487
 30
-657.869
 70
    32
  0
VERTEX
  8
T59SSILL
 62
3
 10
1490.770
 20
-8083.525
 30
-657.880
 70
    32
  0
VERTEX
  8
T59SSILL
 62
3
 10
1488.288
 20
-8067.818
 30
-657.904
 70
    32
  0
VERTEX
  8
T59SSILL
 62
3
 10
1489.606
 20
-8057.860
 30
-657.926
 70
    32
  0
VERTEX
  8
T59SSILL
 62
3
 10
1494.508
 20
-8047.560
 30
-657.956
 70
    32
  0
VERTEX
  8
T59SSILL
 62
3
 10
1498.768
 20
-8040.255
 30
-657.937
 70
    32
  0
VERTEX
  8
T59SSILL
 62
3
 10
1507.431
 20
-8031.787
 30
-657.921
 70
    32
  0
VERTEX
  8
T59SSILL
 62
3
 10
1547.253
 20
-8004.184
 30
-657.886
 70
    32
  0
VERTEX
  8
T59SSILL
 62
3
 10
1552.276
 20
-7998.508
 30
-657.874
 70
    32
  0
VERTEX
  8
T59SSILL
 62
3
 10
1561.789
 20
-7979.001
 30
-657.821
 70
    32
  0
VERTEX
  8
T59SSILL
 62
3
 10
1562.726
 20
-7974.155
 30
-657.781
 70
    32
  0
VERTEX
  8
T59SSILL
 62
3
 10
1568.794
 20
-7961.999
 30
-657.755
 70
    32
  0
VERTEX
  8
T59SSILL
 62
3
 10
1583.399
 20
-7952.883
 30
-657.739
 70
    32
  0
VERTEX
  8
T59SSILL
 62
3
 10
1587.668
 20
-7945.905
 30
-657.724
 70
    32
  0
VERTEX
  8
T59SSILL
 62
3
 10
1584.185
 20
-7939.489
 30
-657.709
 70
    32
  0
VERTEX
  8
T59SSILL
 62
3
 10
1588.342
 20
-7932.174
 30
-657.694
 70
    32
  0
VERTEX
  8
T59SSILL
 62
3
 10
1598.454
 20
-7926.997
 30
-657.685
 70
    32
  0
VERTEX
  8
T59SSILL
 62
3
 10
1610.026
 20
-7916.754
 30
-657.665
 70
    32
  0
VERTEX
  8
T59SSILL
 62
3
 10
1611.486
 20
-7903.699
 30
-657.636
 70
    32
  0
VERTEX
  8
T59SSILL
 62
3
 10
1597.893
 20
-7895.370
 30
-657.615
 70
    32
  0
VERTEX
  8
T59SSILL
 62
3
 10
1586.770
 20
-7899.197
 30
-657.620
 70
    32
  0
VERTEX
  8
T59SSILL
 62
3
 10
1580.253
 20
-7907.638
 30
-657.638
 70
    32
  0
VERTEX
  8
T59SSILL
 62
3
 10
1578.344
 20
-7922.832
 30
-657.671
 70
    32
  0
VERTEX
  8
T59SSILL
 62
3
 10
1575.647
 20
-7931.948
 30
-657.690
 70
    32
  0
VERTEX
  8
T59SSILL
 62
3
 10
1567.445
 20
-7943.991
 30
-657.715
 70
    32
  0
VERTEX
  8
T59SSILL
 62
3
 10
1565.872
 20
-7944.329
 30
-657.716
 70
    32
  0
VERTEX
  8
T59SSILL
 62
3
 10
1559.693
 20
-7944.667
 30
-657.715
 70
    32
  0
VERTEX
  8
T59SSILL
 62
3
 10
1508.962
 20
-7860.561
 30
-657.328
 70
    32
  0
VERTEX
  8
T59SSILL
 62
3
 10
1511.042
 20
-7856.570
 30
-657.318
 70
    32
  0
VERTEX
  8
T59SSILL
 62
3
 10
1509.294
 20
-7845.952
 30
-657.278
 70
    32
  0
VERTEX
  8
T59SSILL
 62
3
 10
1519.427
 20
-7785.355
 30
-657.083
 70
    32
  0
VERTEX
  8
T59SSILL
 62
3
 10
1523.073
 20
-7782.931
 30
-657.081
 70
    32
  0
VERTEX
  8
T59SSILL
 62
3
 10
1521.446
 20
-7776.656
 30
-657.053
 70
    32
  0
VERTEX
  8
T59SSILL
 62
3
 10
1586.043
 20
-7730.175
 30
-656.794
 70
    32
  0
VERTEX
  8
T59SSILL
 62
3
 10
1624.666
 20
-7723.130
 30
-655.748
 70
    32
  0
VERTEX
  8
T59SSILL
 62
3
 10
1632.396
 20
-7720.331
 30
-655.281
 70
    32
  0
VERTEX
  8
T59SSILL
 62
3
 10
1645.371
 20
-7719.515
 30
-654.512
 70
    32
  0
VERTEX
  8
T59SSILL
 62
3
 10
1657.818
 20
-7724.115
 30
-653.771
 70
    32
  0
VERTEX
  8
T59SSILL
 62
3
 10
1667.205
 20
-7731.723
 30
-653.072
 70
    32
  0
VERTEX
  8
T59SSILL
 62
3
 10
1673.383
 20
-7746.598
 30
-653.074
 70
    32
  0
VERTEX
  8
T59SSILL
 62
3
 10
1671.962
 20
-7896.387
 30
-655.261
 70
    32
  0
VERTEX
  8
T59SSILL
 62
3
 10
1665.073
 20
-7904.096
 30
-655.378
 70
    32
  0
VERTEX
  8
T59SSILL
 62
3
 10
1664.604
 20
-7914.688
 30
-655.535
 70
    32
  0
VERTEX
  8
T59SSILL
 62
3
 10
1671.711
 20
-7921.504
 30
-655.631
 70
    32
  0
VERTEX
  8
T59SSILL
 62
3
 10
1670.775
 20
-8014.839
 30
-656.994
 70
    32
  0
VERTEX
  8
T59SSILL
 62
3
 10
1661.375
 20
-8026.417
 30
-657.072
 70
    32
  0
SEQEND
  8
T59SSILL
  0
POLYLINE
  8
T59SSILL
 62
3
 66
     1
 70
     8
  0
VERTEX
  8
T59SSILL
 62
3
 10
1605.830
 20
-7707.534
 30
-656.672
 70
    32
  0
VERTEX
  8
T59SSILL
 62
3
 10
1573.994
 20
-7717.644
 30
-656.735
 70
    32
  0
VERTEX
  8
T59SSILL
 62
3
 10
1566.065
 20
-7722.954
 30
-656.765
 70
    32
  0
VERTEX
  8
T59SSILL
 62
3
 10
1564.488
 20
-7726.148
 30
-656.782
 70
    32
  0
VERTEX
  8
T59SSILL
 62
3
 10
1535.035
 20
-7746.937
 30
-656.898
 70
    32
  0
VERTEX
  8
T59SSILL
 62
3
 10
1521.677
 20
-7745.051
 30
-656.893
 70
    32
  0
VERTEX
  8
T59SSILL
 62
3
 10
1507.670
 20
-7752.710
 30
-656.937
 70
    32
  0
VERTEX
  8
T59SSILL
 62
3
 10
1500.686
 20
-7745.452
 30
-656.903
 70
    32
  0
VERTEX
  8
T59SSILL
 62
3
 10
1494.486
 20
-7747.781
 30
-656.914
 70
    32
  0
VERTEX
  8
T59SSILL
 62
3
 10
1506.898
 20
-7774.767
 30
-657.027
 70
    32
  0
VERTEX
  8
T59SSILL
 62
3
 10
1504.071
 20
-7776.382
 30
-657.029
 70
    32
  0
VERTEX
  8
T59SSILL
 62
3
 10
1488.394
 20
-7779.200
 30
-657.014
 70
    32
  0
VERTEX
  8
T59SSILL
 62
3
 10
1480.472
 20
-7777.807
 30
-656.997
 70
    32
  0
VERTEX
  8
T59SSILL
 62
3
 10
1470.084
 20
-7774.203
 30
-656.968
 70
    32
  0
VERTEX
  8
T59SSILL
 62
3
 10
1458.710
 20
-7767.747
 30
-656.928
 70
    32
  0
VERTEX
  8
T59SSILL
 62
3
 10
1454.840
 20
-7763.744
 30
-656.909
 70
    32
  0
VERTEX
  8
T59SSILL
 62
3
 10
1454.903
 20
-7757.865
 30
-656.888
 70
    32
  0
VERTEX
  8
T59SSILL
 62
3
 10
1445.973
 20
-7742.401
 30
-656.821
 70
    32
  0
VERTEX
  8
T59SSILL
 62
3
 10
1445.314
 20
-7737.909
 30
-656.804
 70
    32
  0
VERTEX
  8
T59SSILL
 62
3
 10
1446.306
 20
-7734.058
 30
-656.792
 70
    32
  0
VERTEX
  8
T59SSILL
 62
3
 10
1454.287
 20
-7725.686
 30
-656.775
 70
    32
  0
VERTEX
  8
T59SSILL
 62
3
 10
1453.585
 20
-7722.629
 30
-656.764
 70
    32
  0
VERTEX
  8
T59SSILL
 62
3
 10
1447.285
 20
-7723.626
 30
-656.758
 70
    32
  0
VERTEX
  8
T59SSILL
 62
3
 10
1448.338
 20
-7708.819
 30
-656.708
 70
    32
  0
VERTEX
  8
T59SSILL
 62
3
 10
1449.291
 20
-7705.212
 30
-656.697
 70
    32
  0
VERTEX
  8
T59SSILL
 62
3
 10
1455.354
 20
-7697.473
 30
-656.678
 70
    32
  0
VERTEX
  8
T59SSILL
 62
3
 10
1455.293
 20
-7692.764
 30
-656.654
 70
    32
  0
VERTEX
  8
T59SSILL
 62
3
 10
1458.748
 20
-7689.182
 30
-656.635
 70
    32
  0
VERTEX
  8
T59SSILL
 62
3
 10
1458.929
 20
-7685.702
 30
-656.617
 70
    32
  0
VERTEX
  8
T59SSILL
 62
3
 10
1455.153
 20
-7672.880
 30
-656.553
 70
    32
  0
VERTEX
  8
T59SSILL
 62
3
 10
1446.681
 20
-7663.567
 30
-656.510
 70
    32
  0
VERTEX
  8
T59SSILL
 62
3
 10
1446.661
 20
-7654.290
 30
-656.463
 70
    32
  0
VERTEX
  8
T59SSILL
 62
3
 10
1444.975
 20
-7651.514
 30
-656.449
 70
    32
  0
VERTEX
  8
T59SSILL
 62
3
 10
1443.093
 20
-7653.093
 30
-656.458
 70
    32
  0
VERTEX
  8
T59SSILL
 62
3
 10
1437.404
 20
-7651.055
 30
-656.450
 70
    32
  0
VERTEX
  8
T59SSILL
 62
3
 10
1435.537
 20
-7658.025
 30
-656.486
 70
    32
  0
VERTEX
  8
T59SSILL
 62
3
 10
1428.131
 20
-7662.416
 30
-656.511
 70
    32
  0
VERTEX
  8
T59SSILL
 62
3
 10
1424.351
 20
-7689.568
 30
-656.604
 70
    32
  0
VERTEX
  8
T59SSILL
 62
3
 10
1427.904
 20
-7697.906
 30
-656.638
 70
    32
  0
VERTEX
  8
T59SSILL
 62
3
 10
1419.605
 20
-7704.348
 30
-656.648
 70
    32
  0
VERTEX
  8
T59SSILL
 62
3
 10
1377.843
 20
-7634.446
 30
-656.343
 70
    32
  0
VERTEX
  8
T59SSILL
 62
3
 10
1395.233
 20
-7621.313
 30
-656.315
 70
    32
  0
VERTEX
  8
T59SSILL
 62
3
 10
1390.125
 20
-7614.857
 30
-656.289
 70
    32
  0
VERTEX
  8
T59SSILL
 62
3
 10
1373.679
 20
-7626.010
 30
-656.313
 70
    32
  0
VERTEX
  8
T59SSILL
 62
3
 10
1324.261
 20
-7532.795
 30
-655.979
 70
    32
  0
VERTEX
  8
T59SSILL
 62
3
 10
1324.586
 20
-7528.653
 30
-655.967
 70
    32
  0
VERTEX
  8
T59SSILL
 62
3
 10
1308.871
 20
-7504.416
 30
-655.877
 70
    32
  0
VERTEX
  8
T59SSILL
 62
3
 10
1303.348
 20
-7481.796
 30
-655.802
 70
    32
  0
VERTEX
  8
T59SSILL
 62
3
 10
1304.061
 20
-7463.628
 30
-655.730
 70
    32
  0
VERTEX
  8
T59SSILL
 62
3
 10
1308.141
 20
-7447.708
 30
-655.654
 70
    32
  0
VERTEX
  8
T59SSILL
 62
3
 10
1312.864
 20
-7438.489
 30
-655.607
 70
    32
  0
VERTEX
  8
T59SSILL
 62
3
 10
1324.028
 20
-7425.970
 30
-655.544
 70
    32
  0
VERTEX
  8
T59SSILL
 62
3
 10
1340.005
 20
-7414.955
 30
-655.490
 70
    32
  0
VERTEX
  8
T59SSILL
 62
3
 10
1347.044
 20
-7422.989
 30
-655.519
 70
    32
  0
VERTEX
  8
T59SSILL
 62
3
 10
1365.608
 20
-7411.771
 30
-655.462
 70
    32
  0
VERTEX
  8
T59SSILL
 62
3
 10
1367.077
 20
-7406.641
 30
-655.440
 70
    32
  0
VERTEX
  8
T59SSILL
 62
3
 10
1365.926
 20
-7395.196
 30
-655.393
 70
    32
  0
VERTEX
  8
T59SSILL
 62
3
 10
1456.975
 20
-7329.670
 30
-655.069
 70
    32
  0
VERTEX
  8
T59SSILL
 62
3
 10
1467.234
 20
-7327.094
 30
-655.053
 70
    32
  0
VERTEX
  8
T59SSILL
 62
3
 10
1483.843
 20
-7329.796
 30
-655.054
 70
    32
  0
VERTEX
  8
T59SSILL
 62
3
 10
1486.160
 20
-7320.859
 30
-655.016
 70
    32
  0
VERTEX
  8
T59SSILL
 62
3
 10
1483.031
 20
-7311.865
 30
-654.981
 70
    32
  0
VERTEX
  8
T59SSILL
 62
3
 10
1492.737
 20
-7305.041
 30
-654.947
 70
    32
  0
VERTEX
  8
T59SSILL
 62
3
 10
1500.781
 20
-7314.419
 30
-654.981
 70
    32
  0
VERTEX
  8
T59SSILL
 62
3
 10
1506.385
 20
-7317.561
 30
-654.991
 70
    32
  0
VERTEX
  8
T59SSILL
 62
3
 10
1541.229
 20
-7331.946
 30
-655.030
 70
    32
  0
VERTEX
  8
T59SSILL
 62
3
 10
1545.828
 20
-7330.297
 30
-655.021
 70
    32
  0
VERTEX
  8
T59SSILL
 62
3
 10
1551.839
 20
-7324.829
 30
-654.995
 70
    32
  0
VERTEX
  8
T59SSILL
 62
3
 10
1557.341
 20
-7325.643
 30
-654.995
 70
    32
  0
VERTEX
  8
T59SSILL
 62
3
 10
1562.720
 20
-7318.175
 30
-654.961
 70
    32
  0
VERTEX
  8
T59SSILL
 62
3
 10
1566.516
 20
-7317.768
 30
-654.957
 70
    32
  0
VERTEX
  8
T59SSILL
 62
3
 10
1543.449
 20
-7283.701
 30
-654.829
 70
    32
  0
VERTEX
  8
T59SSILL
 62
3
 10
1535.036
 20
-7284.454
 30
-654.837
 70
    32
  0
VERTEX
  8
T59SSILL
 62
3
 10
1529.779
 20
-7277.470
 30
-654.811
 70
    32
  0
VERTEX
  8
T59SSILL
 62
3
 10
1623.612
 20
-7208.433
 30
-654.471
 70
    32
  0
VERTEX
  8
T59SSILL
 62
3
 10
1619.463
 20
-7202.795
 30
-654.450
 70
    32
  0
VERTEX
  8
T59SSILL
 62
3
 10
1516.091
 20
-7278.851
 30
-654.825
 70
    32
  0
VERTEX
  8
T59SSILL
 62
3
 10
1488.702
 20
-7275.923
 30
-654.828
 70
    32
  0
VERTEX
  8
T59SSILL
 62
3
 10
1480.256
 20
-7281.107
 30
-654.855
 70
    32
  0
VERTEX
  8
T59SSILL
 62
3
 10
1481.315
 20
-7292.131
 30
-654.900
 70
    32
  0
VERTEX
  8
T59SSILL
 62
3
 10
1487.230
 20
-7299.934
 30
-654.929
 70
    32
  0
VERTEX
  8
T59SSILL
 62
3
 10
1478.752
 20
-7305.839
 30
-654.958
 70
    32
  0
VERTEX
  8
T59SSILL
 62
3
 10
1473.043
 20
-7306.633
 30
-654.965
 70
    32
  0
VERTEX
  8
T59SSILL
 62
3
 10
1460.230
 20
-7315.931
 30
-655.010
 70
    32
  0
VERTEX
  8
T59SSILL
 62
3
 10
1453.316
 20
-7305.841
 30
-654.973
 70
    32
  0
VERTEX
  8
T59SSILL
 62
3
 10
1455.429
 20
-7301.897
 30
-654.955
 70
    32
  0
VERTEX
  8
T59SSILL
 62
3
 10
1458.608
 20
-7236.648
 30
-654.683
 70
    32
  0
VERTEX
  8
T59SSILL
 62
3
 10
1470.529
 20
-7222.006
 30
-654.615
 70
    32
  0
VERTEX
  8
T59SSILL
 62
3
 10
1471.998
 20
-7218.254
 30
-654.599
 70
    32
  0
VERTEX
  8
T59SSILL
 62
3
 10
1469.525
 20
-7208.944
 30
-654.562
 70
    32
  0
VERTEX
  8
T59SSILL
 62
3
 10
1471.344
 20
-7207.543
 30
-654.555
 70
    32
  0
VERTEX
  8
T59SSILL
 62
3
 10
1462.136
 20
-7191.668
 30
-654.494
 70
    32
  0
VERTEX
  8
T59SSILL
 62
3
 10
1463.957
 20
-7176.483
 30
-654.430
 70
    32
  0
VERTEX
  8
T59SSILL
 62
3
 10
1461.894
 20
-7169.214
 30
-654.401
 70
    32
  0
VERTEX
  8
T59SSILL
 62
3
 10
1463.804
 20
-7130.014
 30
-654.238
 70
    32
  0
VERTEX
  8
T59SSILL
 62
3
 10
1453.961
 20
-7129.580
 30
-654.242
 70
    32
  0
VERTEX
  8
T59SSILL
 62
3
 10
1452.702
 20
-7158.227
 30
-654.361
 70
    32
  0
VERTEX
  8
T59SSILL
 62
3
 10
1443.518
 20
-7167.668
 30
-654.406
 70
    32
  0
VERTEX
  8
T59SSILL
 62
3
 10
1435.912
 20
-7192.039
 30
-654.511
 70
    32
  0
VERTEX
  8
T59SSILL
 62
3
 10
1449.649
 20
-7227.687
 30
-654.651
 70
    32
  0
VERTEX
  8
T59SSILL
 62
3
 10
1446.956
 20
-7288.971
 30
-654.906
 70
    32
  0
VERTEX
  8
T59SSILL
 62
3
 10
1433.249
 20
-7303.952
 30
-654.976
 70
    32
  0
VERTEX
  8
T59SSILL
 62
3
 10
1419.852
 20
-7257.683
 30
-654.792
 70
    32
  0
VERTEX
  8
T59SSILL
 62
3
 10
1421.978
 20
-7238.453
 30
-654.711
 70
    32
  0
VERTEX
  8
T59SSILL
 62
3
 10
1420.702
 20
-7229.064
 30
-654.673
 70
    32
  0
VERTEX
  8
T59SSILL
 62
3
 10
1422.273
 20
-7224.194
 30
-654.652
 70
    32
  0
VERTEX
  8
T59SSILL
 62
3
 10
1430.408
 20
-7213.280
 30
-654.602
 70
    32
  0
VERTEX
  8
T59SSILL
 62
3
 10
1437.663
 20
-7206.547
 30
-654.570
 70
    32
  0
VERTEX
  8
T59SSILL
 62
3
 10
1429.991
 20
-7195.824
 30
-654.530
 70
    32
  0
VERTEX
  8
T59SSILL
 62
3
 10
1424.714
 20
-7204.930
 30
-654.571
 70
    32
  0
VERTEX
  8
T59SSILL
 62
3
 10
1420.263
 20
-7203.585
 30
-654.568
 70
    32
  0
VERTEX
  8
T59SSILL
 62
3
 10
1408.364
 20
-7229.696
 30
-654.683
 70
    32
  0
VERTEX
  8
T59SSILL
 62
3
 10
1405.753
 20
-7241.864
 30
-654.735
 70
    32
  0
VERTEX
  8
T59SSILL
 62
3
 10
1431.293
 20
-7332.346
 30
-655.095
 70
    32
  0
VERTEX
  8
T59SSILL
 62
3
 10
1427.654
 20
-7339.283
 30
-655.126
 70
    32
  0
VERTEX
  8
T59SSILL
 62
3
 10
1323.374
 20
-7412.502
 30
-655.489
 70
    32
  0
VERTEX
  8
T59SSILL
 62
3
 10
1313.566
 20
-7421.823
 30
-655.533
 70
    32
  0
VERTEX
  8
T59SSILL
 62
3
 10
1311.611
 20
-7426.094
 30
-655.553
 70
    32
  0
VERTEX
  8
T59SSILL
 62
3
 10
1304.018
 20
-7426.907
 30
-655.567
 70
    32
  0
VERTEX
  8
T59SSILL
 62
3
 10
1288.405
 20
-7405.687
 30
-655.493
 70
    32
  0
VERTEX
  8
T59SSILL
 62
3
 10
1249.392
 20
-7321.452
 30
-655.170
 70
    32
  0
VERTEX
  8
T59SSILL
 62
3
 10
1242.424
 20
-7293.379
 30
-655.055
 70
    32
  0
VERTEX
  8
T59SSILL
 62
3
 10
1231.429
 20
-7279.737
 30
-655.009
 70
    32
  0
VERTEX
  8
T59SSILL
 62
3
 10
1226.389
 20
-7264.440
 30
-654.947
 70
    32
  0
VERTEX
  8
T59SSILL
 62
3
 10
1230.301
 20
-7248.132
 30
-654.870
 70
    32
  0
VERTEX
  8
T59SSILL
 62
3
 10
1226.733
 20
-7237.724
 30
-654.829
 70
    32
  0
VERTEX
  8
T59SSILL
 62
3
 10
1227.470
 20
-7229.532
 30
-654.791
 70
    32
  0
VERTEX
  8
T59SSILL
 62
3
 10
1222.037
 20
-7217.111
 30
-654.743
 70
    32
  0
VERTEX
  8
T59SSILL
 62
3
 10
1208.509
 20
-7162.291
 30
-654.518
 70
    32
  0
VERTEX
  8
T59SSILL
 62
3
 10
1209.622
 20
-7136.448
 30
-654.410
 70
    32
  0
VERTEX
  8
T59SSILL
 62
3
 10
1198.507
 20
-7111.354
 30
-654.313
 70
    32
  0
VERTEX
  8
T59SSILL
 62
3
 10
1182.431
 20
-7089.297
 30
-654.230
 70
    32
  0
VERTEX
  8
T59SSILL
 62
3
 10
1179.244
 20
-7077.891
 30
-654.185
 70
    32
  0
VERTEX
  8
T59SSILL
 62
3
 10
1165.827
 20
-7061.168
 30
-654.125
 70
    32
  0
VERTEX
  8
T59SSILL
 62
3
 10
1160.572
 20
-7050.438
 30
-654.084
 70
    32
  0
VERTEX
  8
T59SSILL
 62
3
 10
1251.318
 20
-6985.266
 30
-653.760
 70
    32
  0
VERTEX
  8
T59SSILL
 62
3
 10
1255.305
 20
-6986.297
 30
-653.762
 70
    32
  0
VERTEX
  8
T59SSILL
 62
3
 10
1277.454
 20
-7018.401
 30
-653.882
 70
    32
  0
VERTEX
  8
T59SSILL
 62
3
 10
1274.997
 20
-7021.202
 30
-653.895
 70
    32
  0
VERTEX
  8
T59SSILL
 62
3
 10
1278.408
 20
-7026.415
 30
-653.915
 70
    32
  0
VERTEX
  8
T59SSILL
 62
3
 10
1282.421
 20
-7024.937
 30
-653.906
 70
    32
  0
VERTEX
  8
T59SSILL
 62
3
 10
1285.156
 20
-7028.082
 30
-653.918
 70
    32
  0
VERTEX
  8
T59SSILL
 62
3
 10
1293.073
 20
-7022.497
 30
-653.890
 70
    32
  0
VERTEX
  8
T59SSILL
 62
3
 10
1290.403
 20
-7018.915
 30
-653.877
 70
    32
  0
VERTEX
  8
T59SSILL
 62
3
 10
1293.736
 20
-7016.119
 30
-653.863
 70
    32
  0
VERTEX
  8
T59SSILL
 62
3
 10
1289.893
 20
-7009.839
 30
-653.840
 70
    32
  0
VERTEX
  8
T59SSILL
 62
3
 10
1286.184
 20
-7012.883
 30
-653.854
 70
    32
  0
VERTEX
  8
T59SSILL
 62
3
 10
1262.267
 20
-6977.402
 30
-653.721
 70
    32
  0
VERTEX
  8
T59SSILL
 62
3
 10
1302.272
 20
-6948.672
 30
-653.579
 70
    32
  0
VERTEX
  8
T59SSILL
 62
3
 10
1307.826
 20
-6954.020
 30
-653.598
 70
    32
  0
VERTEX
  8
T59SSILL
 62
3
 10
1317.005
 20
-6968.111
 30
-653.651
 70
    32
  0
VERTEX
  8
T59SSILL
 62
3
 10
1330.479
 20
-6958.407
 30
-653.604
 70
    32
  0
VERTEX
  8
T59SSILL
 62
3
 10
1340.131
 20
-6962.026
 30
-653.614
 70
    32
  0
VERTEX
  8
T59SSILL
 62
3
 10
1352.534
 20
-6971.929
 30
-653.647
 70
    32
  0
VERTEX
  8
T59SSILL
 62
3
 10
1361.029
 20
-6986.864
 30
-653.704
 70
    32
  0
VERTEX
  8
T59SSILL
 62
3
 10
1368.456
 20
-6994.247
 30
-653.730
 70
    32
  0
VERTEX
  8
T59SSILL
 62
3
 10
1376.658
 20
-6992.581
 30
-653.718
 70
    32
  0
VERTEX
  8
T59SSILL
 62
3
 10
1384.743
 20
-6985.065
 30
-653.683
 70
    32
  0
VERTEX
  8
T59SSILL
 62
3
 10
1369.013
 20
-6962.272
 30
-653.611
 70
    32
  0
VERTEX
  8
T59SSILL
 62
3
 10
1366.962
 20
-6955.020
 30
-653.588
 70
    32
  0
VERTEX
  8
T59SSILL
 62
3
 10
1353.594
 20
-6945.733
 30
-653.561
 70
    32
  0
VERTEX
  8
T59SSILL
 62
3
 10
1324.363
 20
-6937.722
 30
-653.540
 70
    32
  0
VERTEX
  8
T59SSILL
 62
3
 10
1315.742
 20
-6931.021
 30
-653.520
 70
    32
  0
VERTEX
  8
T59SSILL
 62
3
 10
1306.782
 20
-6917.727
 30
-653.480
 70
    32
  0
VERTEX
  8
T59SSILL
 62
3
 10
1298.210
 20
-6911.062
 30
-653.461
 70
    32
  0
VERTEX
  8
T59SSILL
 62
3
 10
1288.080
 20
-6898.322
 30
-653.422
 70
    32
  0
VERTEX
  8
T59SSILL
 62
3
 10
1285.145
 20
-6884.945
 30
-653.381
 70
    32
  0
VERTEX
  8
T59SSILL
 62
3
 10
1267.675
 20
-6865.281
 30
-653.322
 70
    32
  0
VERTEX
  8
T59SSILL
 62
3
 10
1266.005
 20
-6860.825
 30
-653.308
 70
    32
  0
VERTEX
  8
T59SSILL
 62
3
 10
1252.567
 20
-6848.354
 30
-653.271
 70
    32
  0
VERTEX
  8
T59SSILL
 62
3
 10
1242.244
 20
-6831.376
 30
-653.227
 70
    32
  0
VERTEX
  8
T59SSILL
 62
3
 10
1241.934
 20
-6821.086
 30
-653.203
 70
    32
  0
VERTEX
  8
T59SSILL
 62
3
 10
1236.830
 20
-6813.486
 30
-653.185
 70
    32
  0
VERTEX
  8
T59SSILL
 62
3
 10
1233.351
 20
-6799.965
 30
-653.153
 70
    32
  0
VERTEX
  8
T59SSILL
 62
3
 10
1229.742
 20
-6801.005
 30
-653.154
 70
    32
  0
VERTEX
  8
T59SSILL
 62
3
 10
1221.641
 20
-6799.248
 30
-653.148
 70
    32
  0
VERTEX
  8
T59SSILL
 62
3
 10
1216.181
 20
-6801.336
 30
-653.151
 70
    32
  0
VERTEX
  8
T59SSILL
 62
3
 10
1215.399
 20
-6803.232
 30
-653.155
 70
    32
  0
VERTEX
  8
T59SSILL
 62
3
 10
1218.115
 20
-6809.979
 30
-653.171
 70
    32
  0
VERTEX
  8
T59SSILL
 62
3
 10
1217.455
 20
-6814.997
 30
-653.183
 70
    32
  0
VERTEX
  8
T59SSILL
 62
3
 10
1172.133
 20
-6808.233
 30
-653.157
 70
    32
  0
VERTEX
  8
T59SSILL
 62
3
 10
1170.068
 20
-6797.584
 30
-653.129
 70
    32
  0
VERTEX
  8
T59SSILL
 62
3
 10
1258.782
 20
-6733.735
 30
-653.008
 70
    32
  0
VERTEX
  8
T59SSILL
 62
3
 10
1254.723
 20
-6728.032
 30
-652.994
 70
    32
  0
VERTEX
  8
T59SSILL
 62
3
 10
1095.968
 20
-6841.026
 30
-653.269
 70
    32
  0
VERTEX
  8
T59SSILL
 62
3
 10
1095.737
 20
-6826.075
 30
-653.222
 70
    32
  0
VERTEX
  8
T59SSILL
 62
3
 10
1074.519
 20
-6756.958
 30
-653.010
 70
    32
  0
VERTEX
  8
T59SSILL
 62
3
 10
1076.531
 20
-6746.632
 30
-652.986
 70
    32
  0
VERTEX
  8
T59SSILL
 62
3
 10
1080.163
 20
-6738.647
 30
-652.969
 70
    32
  0
VERTEX
  8
T59SSILL
 62
3
 10
1089.392
 20
-6730.035
 30
-652.952
 70
    32
  0
VERTEX
  8
T59SSILL
 62
3
 10
1127.789
 20
-6702.671
 30
-652.900
 70
    32
  0
VERTEX
  8
T59SSILL
 62
3
 10
1154.188
 20
-6698.957
 30
-652.899
 70
    32
  0
VERTEX
  8
T59SSILL
 62
3
 10
1157.452
 20
-6696.420
 30
-652.894
 70
    32
  0
VERTEX
  8
T59SSILL
 62
3
 10
1159.797
 20
-6690.732
 30
-652.882
 70
    32
  0
VERTEX
  8
T59SSILL
 62
3
 10
1157.704
 20
-6682.317
 30
-652.862
 70
    32
  0
VERTEX
  8
T59SSILL
 62
3
 10
1212.063
 20
-6643.868
 30
-652.789
 70
    32
  0
VERTEX
  8
T59SSILL
 62
3
 10
1207.236
 20
-6637.376
 30
-652.773
 70
    32
  0
VERTEX
  8
T59SSILL
 62
3
 10
1082.528
 20
-6726.466
 30
-652.942
 70
    32
  0
VERTEX
  8
T59SSILL
 62
3
 10
1074.015
 20
-6734.555
 30
-652.958
 70
    32
  0
VERTEX
  8
T59SSILL
 62
3
 10
1070.564
 20
-6741.550
 30
-652.973
 70
    32
  0
VERTEX
  8
T59SSILL
 62
3
 10
1021.518
 20
-6582.822
 30
-652.646
 70
    32
  0
VERTEX
  8
T59SSILL
 62
3
 10
1015.657
 20
-6546.621
 30
-652.560
 70
    32
  0
VERTEX
  8
T59SSILL
 62
3
 10
1027.922
 20
-6536.241
 30
-652.501
 70
    32
  0
VERTEX
  8
T59SSILL
 62
3
 10
1022.619
 20
-6525.946
 30
-652.485
 70
    32
  0
VERTEX
  8
T59SSILL
 62
3
 10
1018.039
 20
-6528.503
 30
-652.504
 70
    32
  0
VERTEX
  8
T59SSILL
 62
3
 10
1012.737
 20
-6524.958
 30
-652.508
 70
    32
  0
VERTEX
  8
T59SSILL
 62
3
 10
1010.276
 20
-6514.134
 30
-652.484
 70
    32
  0
VERTEX
  8
T59SSILL
 62
3
 10
1004.357
 20
-6514.930
 30
-652.501
 70
    32
  0
VERTEX
  8
T59SSILL
 62
3
 10
1006.789
 20
-6535.253
 30
-652.551
 70
    32
  0
VERTEX
  8
T59SSILL
 62
3
 10
1001.050
 20
-6539.558
 30
-652.578
 70
    32
  0
VERTEX
  8
T59SSILL
 62
3
 10
1003.915
 20
-6546.468
 30
-652.590
 70
    32
  0
VERTEX
  8
T59SSILL
 62
3
 10
1007.069
 20
-6544.831
 30
-652.577
 70
    32
  0
VERTEX
  8
T59SSILL
 62
3
 10
1011.204
 20
-6570.498
 30
-652.638
 70
    32
  0
VERTEX
  8
T59SSILL
 62
3
 10
932.336
 20
-6472.917
 30
-652.543
 70
    32
  0
VERTEX
  8
T59SSILL
 62
3
 10
970.226
 20
-6445.951
 30
-652.383
 70
    32
  0
VERTEX
  8
T59SSILL
 62
3
 10
973.651
 20
-6452.723
 30
-652.395
 70
    32
  0
VERTEX
  8
T59SSILL
 62
3
 10
982.535
 20
-6456.522
 30
-652.386
 70
    32
  0
VERTEX
  8
T59SSILL
 62
3
 10
986.703
 20
-6462.294
 30
-652.393
 70
    32
  0
VERTEX
  8
T59SSILL
 62
3
 10
991.790
 20
-6464.859
 30
-652.389
 70
    32
  0
VERTEX
  8
T59SSILL
 62
3
 10
995.231
 20
-6465.366
 30
-652.383
 70
    32
  0
VERTEX
  8
T59SSILL
 62
3
 10
1003.280
 20
-6459.265
 30
-652.348
 70
    32
  0
VERTEX
  8
T59SSILL
 62
3
 10
1004.226
 20
-6455.810
 30
-652.336
 70
    32
  0
VERTEX
  8
T59SSILL
 62
3
 10
994.342
 20
-6438.534
 30
-652.309
 70
    32
  0
VERTEX
  8
T59SSILL
 62
3
 10
992.957
 20
-6433.571
 30
-652.298
 70
    32
  0
VERTEX
  8
T59SSILL
 62
3
 10
989.932
 20
-6431.927
 30
-652.300
 70
    32
  0
VERTEX
  8
T59SSILL
 62
3
 10
1015.168
 20
-6413.968
 30
-652.193
 70
    32
  0
VERTEX
  8
T59SSILL
 62
3
 10
1025.853
 20
-6380.083
 30
-652.103
 70
    32
  0
VERTEX
  8
T59SSILL
 62
3
 10
1034.517
 20
-6378.935
 30
-652.113
 70
    32
  0
VERTEX
  8
T59SSILL
 62
3
 10
1036.912
 20
-6374.230
 30
-652.105
 70
    32
  0
VERTEX
  8
T59SSILL
 62
3
 10
1033.399
 20
-6356.153
 30
-652.060
 70
    32
  0
VERTEX
  8
T59SSILL
 62
3
 10
1062.184
 20
-6263.781
 30
-651.885
 70
    32
  0
VERTEX
  8
T59SSILL
 62
3
 10
1062.703
 20
-6245.342
 30
-651.850
 70
    32
  0
VERTEX
  8
T59SSILL
 62
3
 10
1060.181
 20
-6236.371
 30
-651.837
 70
    32
  0
VERTEX
  8
T59SSILL
 62
3
 10
1103.324
 20
-6220.671
 30
-651.814
 70
    32
  0
VERTEX
  8
T59SSILL
 62
3
 10
1101.117
 20
-6215.386
 30
-651.802
 70
    32
  0
VERTEX
  8
T59SSILL
 62
3
 10
1088.138
 20
-6218.857
 30
-651.804
 70
    32
  0
VERTEX
  8
T59SSILL
 62
3
 10
1085.384
 20
-6211.617
 30
-651.787
 70
    32
  0
VERTEX
  8
T59SSILL
 62
3
 10
1055.205
 20
-6222.382
 30
-651.810
 70
    32
  0
VERTEX
  8
T59SSILL
 62
3
 10
1021.373
 20
-6131.590
 30
-651.639
 70
    32
  0
VERTEX
  8
T59SSILL
 62
3
 10
1033.327
 20
-6121.111
 30
-651.621
 70
    32
  0
VERTEX
  8
T59SSILL
 62
3
 10
1030.843
 20
-6113.483
 30
-651.607
 70
    32
  0
VERTEX
  8
T59SSILL
 62
3
 10
1019.963
 20
-6116.944
 30
-651.612
 70
    32
  0
VERTEX
  8
T59SSILL
 62
3
 10
1014.374
 20
-6113.879
 30
-651.606
 70
    32
  0
VERTEX
  8
T59SSILL
 62
3
 10
1007.933
 20
-6096.538
 30
-651.573
 70
    32
  0
VERTEX
  8
T59SSILL
 62
3
 10
1001.378
 20
-6099.053
 30
-651.577
 70
    32
  0
VERTEX
  8
T59SSILL
 62
3
 10
1009.568
 20
-6120.822
 30
-651.618
 70
    32
  0
VERTEX
  8
T59SSILL
 62
3
 10
1002.302
 20
-6123.699
 30
-651.623
 70
    32
  0
VERTEX
  8
T59SSILL
 62
3
 10
1005.586
 20
-6132.065
 30
-651.639
 70
    32
  0
VERTEX
  8
T59SSILL
 62
3
 10
1012.996
 20
-6129.409
 30
-651.635
 70
    32
  0
VERTEX
  8
T59SSILL
 62
3
 10
1054.124
 20
-6240.769
 30
-651.844
 70
    32
  0
VERTEX
  8
T59SSILL
 62
3
 10
1055.814
 20
-6253.759
 30
-651.868
 70
    32
  0
VERTEX
  8
T59SSILL
 62
3
 10
1055.115
 20
-6262.951
 30
-651.885
 70
    32
  0
VERTEX
  8
T59SSILL
 62
3
 10
1008.147
 20
-6409.845
 30
-652.197
 70
    32
  0
VERTEX
  8
T59SSILL
 62
3
 10
1002.341
 20
-6413.341
 30
-652.220
 70
    32
  0
VERTEX
  8
T59SSILL
 62
3
 10
997.144
 20
-6409.914
 30
-652.221
 70
    32
  0
VERTEX
  8
T59SSILL
 62
3
 10
988.277
 20
-6411.632
 30
-652.246
 70
    32
  0
VERTEX
  8
T59SSILL
 62
3
 10
986.717
 20
-6425.282
 30
-652.288
 70
    32
  0
VERTEX
  8
T59SSILL
 62
3
 10
984.148
 20
-6427.076
 30
-652.299
 70
    32
  0
VERTEX
  8
T59SSILL
 62
3
 10
979.820
 20
-6422.935
 30
-652.297
 70
    32
  0
VERTEX
  8
T59SSILL
 62
3
 10
969.372
 20
-6429.830
 30
-652.339
 70
    32
  0
VERTEX
  8
T59SSILL
 62
3
 10
968.247
 20
-6433.765
 30
-652.353
 70
    32
  0
VERTEX
  8
T59SSILL
 62
3
 10
969.748
 20
-6437.131
 30
-652.359
 70
    32
  0
VERTEX
  8
T59SSILL
 62
3
 10
910.164
 20
-6478.735
 30
-652.609
 70
    32
  0
VERTEX
  8
T59SSILL
 62
3
 10
892.971
 20
-6528.609
 30
-652.789
 70
    32
  0
VERTEX
  8
T59SSILL
 62
3
 10
889.164
 20
-6497.855
 30
-652.709
 70
    32
  0
VERTEX
  8
T59SSILL
 62
3
 10
861.968
 20
-6341.048
 30
-652.324
 70
    32
  0
VERTEX
  8
T59SSILL
 62
3
 10
869.972
 20
-6333.688
 30
-652.285
 70
    32
  0
VERTEX
  8
T59SSILL
 62
3
 10
864.761
 20
-6304.597
 30
-652.214
 70
    32
  0
VERTEX
  8
T59SSILL
 62
3
 10
855.212
 20
-6302.554
 30
-652.229
 70
    32
  0
VERTEX
  8
T59SSILL
 62
3
 10
790.992
 20
-5952.140
 30
-651.374
 70
    32
  0
VERTEX
  8
T59SSILL
 62
3
 10
765.317
 20
-5803.065
 30
-651.008
 70
    32
  0
VERTEX
  8
T59SSILL
 62
3
 10
764.636
 20
-5788.135
 30
-650.981
 70
    32
  0
VERTEX
  8
T59SSILL
 62
3
 10
772.284
 20
-5756.690
 30
-650.924
 70
    32
  0
VERTEX
  8
T59SSILL
 62
3
 10
777.637
 20
-5746.313
 30
-650.905
 70
    32
  0
VERTEX
  8
T59SSILL
 62
3
 10
787.381
 20
-5732.979
 30
-650.882
 70
    32
  0
VERTEX
  8
T59SSILL
 62
3
 10
799.446
 20
-5719.876
 30
-650.858
 70
    32
  0
VERTEX
  8
T59SSILL
 62
3
 10
809.311
 20
-5711.934
 30
-650.845
 70
    32
  0
VERTEX
  8
T59SSILL
 62
3
 10
1234.595
 20
-5409.122
 30
-650.317
 70
    32
  0
VERTEX
  8
T59SSILL
 62
3
 10
1277.201
 20
-5374.473
 30
-650.227
 70
    32
  0
VERTEX
  8
T59SSILL
 62
3
 10
1535.451
 20
-5189.558
 30
-649.826
 70
    32
  0
VERTEX
  8
T59SSILL
 62
3
 10
1540.420
 20
-5193.560
 30
-649.833
 70
    32
  0
VERTEX
  8
T59SSILL
 62
3
 10
1556.480
 20
-5181.927
 30
-649.792
 70
    32
  0
VERTEX
  8
T59SSILL
 62
3
 10
1562.159
 20
-5174.842
 30
-649.770
 70
    32
  0
VERTEX
  8
T59SSILL
 62
3
 10
1563.728
 20
-5168.783
 30
-649.753
 70
    32
  0
VERTEX
  8
T59SSILL
 62
3
 10
1978.261
 20
-4869.603
 30
-649.278
 70
    32
  0
VERTEX
  8
T59SSILL
 62
3
 10
1997.074
 20
-4862.277
 30
-649.308
 70
    32
  0
VERTEX
  8
T59SSILL
 62
3
 10
2029.190
 20
-4839.345
 30
-649.355
 70
    32
  0
VERTEX
  8
T59SSILL
 62
3
 10
2038.415
 20
-4852.085
 30
-649.375
 70
    32
  0
VERTEX
  8
T59SSILL
 62
3
 10
2074.693
 20
-4825.773
 30
-649.428
 70
    32
  0
VERTEX
  8
T59SSILL
 62
3
 10
2065.746
 20
-4812.381
 30
-649.409
 70
    32
  0
VERTEX
  8
T59SSILL
 62
3
 10
2089.950
 20
-4795.009
 30
-649.445
 70
    32
  0
VERTEX
  8
T59SSILL
 62
3
 10
2102.314
 20
-4794.010
 30
-649.465
 70
    32
  0
VERTEX
  8
T59SSILL
 62
3
 10
2251.308
 20
-4833.701
 30
-649.727
 70
    32
  0
VERTEX
  8
T59SSILL
 62
3
 10
2252.932
 20
-4825.521
 30
-649.728
 70
    32
  0
VERTEX
  8
T59SSILL
 62
3
 10
2168.202
 20
-4802.798
 30
-649.579
 70
    32
  0
VERTEX
  8
T59SSILL
 62
3
 10
2161.023
 20
-4797.988
 30
-649.565
 70
    32
  0
VERTEX
  8
T59SSILL
 62
3
 10
2159.240
 20
-4793.166
 30
-649.561
 70
    32
  0
VERTEX
  8
T59SSILL
 62
3
 10
2160.520
 20
-4770.580
 30
-649.557
 70
    32
  0
VERTEX
  8
T59SSILL
 62
3
 10
2154.696
 20
-4769.154
 30
-649.546
 70
    32
  0
VERTEX
  8
T59SSILL
 62
3
 10
2148.095
 20
-4770.193
 30
-649.536
 70
    32
  0
VERTEX
  8
T59SSILL
 62
3
 10
2144.963
 20
-4782.053
 30
-649.534
 70
    32
  0
VERTEX
  8
T59SSILL
 62
3
 10
2137.486
 20
-4783.535
 30
-649.522
 70
    32
  0
VERTEX
  8
T59SSILL
 62
3
 10
2107.490
 20
-4776.849
 30
-649.469
 70
    32
  0
VERTEX
  8
T59SSILL
 62
3
 10
2152.363
 20
-4744.568
 30
-649.535
 70
    32
  0
VERTEX
  8
T59SSILL
 62
3
 10
2148.322
 20
-4738.370
 30
-649.527
 70
    32
  0
VERTEX
  8
T59SSILL
 62
3
 10
1845.641
 20
-4955.998
 30
-649.468
 70
    32
  0
VERTEX
  8
T59SSILL
 62
3
 10
1822.269
 20
-4923.885
 30
-649.485
 70
    32
  0
VERTEX
  8
T59SSILL
 62
3
 10
1810.648
 20
-4932.261
 30
-649.481
 70
    32
  0
VERTEX
  8
T59SSILL
 62
3
 10
1833.441
 20
-4964.483
 30
-649.492
 70
    32
  0
VERTEX
  8
T59SSILL
 62
3
 10
1792.924
 20
-4993.348
 30
-649.551
 70
    32
  0
VERTEX
  8
T59SSILL
 62
3
 10
1780.868
 20
-4977.021
 30
-649.509
 70
    32
  0
VERTEX
  8
T59SSILL
 62
3
 10
1773.712
 20
-4982.561
 30
-649.508
 70
    32
  0
VERTEX
  8
T59SSILL
 62
3
 10
1785.312
 20
-4999.013
 30
-649.549
 70
    32
  0
VERTEX
  8
T59SSILL
 62
3
 10
1761.651
 20
-5016.083
 30
-649.543
 70
    32
  0
VERTEX
  8
T59SSILL
 62
3
 10
1757.758
 20
-5014.295
 30
-649.534
 70
    32
  0
VERTEX
  8
T59SSILL
 62
3
 10
1755.335
 20
-5020.985
 30
-649.541
 70
    32
  0
VERTEX
  8
T59SSILL
 62
3
 10
1692.345
 20
-5065.579
 30
-649.522
 70
    32
  0
VERTEX
  8
T59SSILL
 62
3
 10
1690.735
 20
-5063.602
 30
-649.517
 70
    32
  0
VERTEX
  8
T59SSILL
 62
3
 10
1685.572
 20
-5067.409
 30
-649.516
 70
    32
  0
VERTEX
  8
T59SSILL
 62
3
 10
1686.972
 20
-5069.545
 30
-649.521
 70
    32
  0
VERTEX
  8
T59SSILL
 62
3
 10
1685.729
 20
-5072.357
 30
-649.524
 70
    32
  0
VERTEX
  8
T59SSILL
 62
3
 10
1276.228
 20
-5367.186
 30
-650.215
 70
    32
  0
VERTEX
  8
T59SSILL
 62
3
 10
1218.150
 20
-5411.169
 30
-650.325
 70
    32
  0
VERTEX
  8
T59SSILL
 62
3
 10
1206.535
 20
-5399.361
 30
-650.309
 70
    32
  0
VERTEX
  8
T59SSILL
 62
3
 10
1175.992
 20
-5423.759
 30
-650.344
 70
    32
  0
VERTEX
  8
T59SSILL
 62
3
 10
1162.848
 20
-5428.486
 30
-650.352
 70
    32
  0
VERTEX
  8
T59SSILL
 62
3
 10
1163.851
 20
-5433.246
 30
-650.361
 70
    32
  0
VERTEX
  8
T59SSILL
 62
3
 10
1175.396
 20
-5432.825
 30
-650.361
 70
    32
  0
VERTEX
  8
T59SSILL
 62
3
 10
1177.678
 20
-5439.071
 30
-650.373
 70
    32
  0
VERTEX
  8
T59SSILL
 62
3
 10
967.320
 20
-5589.460
 30
-650.632
 70
    32
  0
VERTEX
  8
T59SSILL
 62
3
 10
960.878
 20
-5585.077
 30
-650.623
 70
    32
  0
VERTEX
  8
T59SSILL
 62
3
 10
951.268
 20
-5565.642
 30
-650.587
 70
    32
  0
VERTEX
  8
T59SSILL
 62
3
 10
941.193
 20
-5573.768
 30
-650.601
 70
    32
  0
VERTEX
  8
T59SSILL
 62
3
 10
944.673
 20
-5582.865
 30
-650.618
 70
    32
  0
VERTEX
  8
T59SSILL
 62
3
 10
953.134
 20
-5590.269
 30
-650.632
 70
    32
  0
VERTEX
  8
T59SSILL
 62
3
 10
954.261
 20
-5599.013
 30
-650.649
 70
    32
  0
VERTEX
  8
T59SSILL
 62
3
 10
936.628
 20
-5611.314
 30
-650.670
 70
    32
  0
VERTEX
  8
T59SSILL
 62
3
 10
933.935
 20
-5608.920
 30
-650.665
 70
    32
  0
VERTEX
  8
T59SSILL
 62
3
 10
927.413
 20
-5617.795
 30
-650.681
 70
    32
  0
VERTEX
  8
T59SSILL
 62
3
 10
846.924
 20
-5676.322
 30
-650.782
 70
    32
  0
VERTEX
  8
T59SSILL
 62
3
 10
821.091
 20
-5681.473
 30
-650.789
 70
    32
  0
VERTEX
  8
T59SSILL
 62
3
 10
726.657
 20
-5666.043
 30
-650.752
 70
    32
  0
VERTEX
  8
T59SSILL
 62
3
 10
713.142
 20
-5653.635
 30
-650.728
 70
    32
  0
VERTEX
  8
T59SSILL
 62
3
 10
683.026
 20
-5592.630
 30
-650.612
 70
    32
  0
VERTEX
  8
T59SSILL
 62
3
 10
684.174
 20
-5584.194
 30
-650.597
 70
    32
  0
VERTEX
  8
T59SSILL
 62
3
 10
675.209
 20
-5573.628
 30
-650.577
 70
    32
  0
VERTEX
  8
T59SSILL
 62
3
 10
655.610
 20
-5532.153
 30
-650.498
 70
    32
  0
VERTEX
  8
T59SSILL
 62
3
 10
654.729
 20
-5518.943
 30
-650.474
 70
    32
  0
VERTEX
  8
T59SSILL
 62
3
 10
655.844
 20
-5511.599
 30
-650.461
 70
    32
  0
VERTEX
  8
T59SSILL
 62
3
 10
662.779
 20
-5500.936
 30
-650.441
 70
    32
  0
VERTEX
  8
T59SSILL
 62
3
 10
706.429
 20
-5470.622
 30
-650.389
 70
    32
  0
VERTEX
  8
T59SSILL
 62
3
 10
717.193
 20
-5473.176
 30
-650.383
 70
    32
  0
VERTEX
  8
T59SSILL
 62
3
 10
717.193
 20
-5473.176
 30
-650.395
 70
    32
  0
VERTEX
  8
T59SSILL
 62
3
 10
723.442
 20
-5484.336
 30
-650.416
 70
    32
  0
VERTEX
  8
T59SSILL
 62
3
 10
738.990
 20
-5528.759
 30
-650.500
 70
    32
  0
VERTEX
  8
T59SSILL
 62
3
 10
761.728
 20
-5519.318
 30
-650.484
 70
    32
  0
VERTEX
  8
T59SSILL
 62
3
 10
749.750
 20
-5495.675
 30
-650.439
 70
    32
  0
VERTEX
  8
T59SSILL
 62
3
 10
748.746
 20
-5483.017
 30
-650.416
 70
    32
  0
VERTEX
  8
T59SSILL
 62
3
 10
737.214
 20
-5468.520
 30
-650.388
 70
    32
  0
VERTEX
  8
T59SSILL
 62
3
 10
738.418
 20
-5464.385
 30
-650.380
 70
    32
  0
VERTEX
  8
T59SSILL
 62
3
 10
734.467
 20
-5459.186
 30
-650.371
 70
    32
  0
VERTEX
  8
T59SSILL
 62
3
 10
745.017
 20
-5451.050
 30
-650.356
 70
    32
  0
VERTEX
  8
T59SSILL
 62
3
 10
752.274
 20
-5436.281
 30
-650.330
 70
    32
  0
VERTEX
  8
T59SSILL
 62
3
 10
751.095
 20
-5432.137
 30
-650.322
 70
    32
  0
VERTEX
  8
T59SSILL
 62
3
 10
733.679
 20
-5403.698
 30
-650.268
 70
    32
  0
VERTEX
  8
T59SSILL
 62
3
 10
739.083
 20
-5399.017
 30
-650.260
 70
    32
  0
VERTEX
  8
T59SSILL
 62
3
 10
725.228
 20
-5373.601
 30
-650.211
 70
    32
  0
VERTEX
  8
T59SSILL
 62
3
 10
719.611
 20
-5375.623
 30
-650.215
 70
    32
  0
VERTEX
  8
T59SSILL
 62
3
 10
709.678
 20
-5375.230
 30
-650.213
 70
    32
  0
VERTEX
  8
T59SSILL
 62
3
 10
698.056
 20
-5377.665
 30
-650.217
 70
    32
  0
VERTEX
  8
T59SSILL
 62
3
 10
685.668
 20
-5376.188
 30
-650.213
 70
    32
  0
VERTEX
  8
T59SSILL
 62
3
 10
683.131
 20
-5381.621
 30
-650.223
 70
    32
  0
VERTEX
  8
T59SSILL
 62
3
 10
695.501
 20
-5387.864
 30
-650.235
 70
    32
  0
VERTEX
  8
T59SSILL
 62
3
 10
703.606
 20
-5396.967
 30
-650.253
 70
    32
  0
VERTEX
  8
T59SSILL
 62
3
 10
707.451
 20
-5404.288
 30
-650.267
 70
    32
  0
VERTEX
  8
T59SSILL
 62
3
 10
707.858
 20
-5414.936
 30
-650.286
 70
    32
  0
VERTEX
  8
T59SSILL
 62
3
 10
699.957
 20
-5424.678
 30
-650.304
 70
    32
  0
VERTEX
  8
T59SSILL
 62
3
 10
686.899
 20
-5446.030
 30
-650.342
 70
    32
  0
VERTEX
  8
T59SSILL
 62
3
 10
680.773
 20
-5448.123
 30
-650.345
 70
    32
  0
VERTEX
  8
T59SSILL
 62
3
 10
685.647
 20
-5426.443
 30
-650.306
 70
    32
  0
VERTEX
  8
T59SSILL
 62
3
 10
676.591
 20
-5423.762
 30
-650.300
 70
    32
  0
VERTEX
  8
T59SSILL
 62
3
 10
654.746
 20
-5493.472
 30
-650.427
 70
    32
  0
VERTEX
  8
T59SSILL
 62
3
 10
650.522
 20
-5495.960
 30
-650.431
 70
    32
  0
VERTEX
  8
T59SSILL
 62
3
 10
643.622
 20
-5496.525
 30
-650.431
 70
    32
  0
VERTEX
  8
T59SSILL
 62
3
 10
635.396
 20
-5489.103
 30
-650.417
 70
    32
  0
VERTEX
  8
T59SSILL
 62
3
 10
541.218
 20
-5293.041
 30
-650.051
 70
    32
  0
VERTEX
  8
T59SSILL
 62
3
 10
481.201
 20
-4953.172
 30
-649.956
 70
    32
  0
VERTEX
  8
T59SSILL
 62
3
 10
483.854
 20
-4949.408
 30
-649.957
 70
    32
  0
VERTEX
  8
T59SSILL
 62
3
 10
483.240
 20
-4946.326
 30
-649.956
 70
    32
  0
VERTEX
  8
T59SSILL
 62
3
 10
479.548
 20
-4944.566
 30
-649.954
 70
    32
  0
VERTEX
  8
T59SSILL
 62
3
 10
471.733
 20
-4945.514
 30
-649.951
 70
    32
  0
VERTEX
  8
T59SSILL
 62
3
 10
469.402
 20
-4947.279
 30
-649.950
 70
    32
  0
VERTEX
  8
T59SSILL
 62
3
 10
469.319
 20
-4951.786
 30
-649.950
 70
    32
  0
VERTEX
  8
T59SSILL
 62
3
 10
473.412
 20
-4954.654
 30
-649.952
 70
    32
  0
VERTEX
  8
T59SSILL
 62
3
 10
534.371
 20
-5294.236
 30
-650.076
 70
    32
  0
VERTEX
  8
T59SSILL
 62
3
 10
615.854
 20
-5465.200
 30
-650.376
 70
    32
  0
VERTEX
  8
T59SSILL
 62
3
 10
609.757
 20
-5474.511
 30
-650.416
 70
    32
  0
VERTEX
  8
T59SSILL
 62
3
 10
582.274
 20
-5488.329
 30
-650.526
 70
    32
  0
VERTEX
  8
T59SSILL
 62
3
 10
582.653
 20
-5491.759
 30
-650.536
 70
    32
  0
VERTEX
  8
T59SSILL
 62
3
 10
580.535
 20
-5493.347
 30
-650.548
 70
    32
  0
VERTEX
  8
T59SSILL
 62
3
 10
585.085
 20
-5502.251
 30
-650.561
 70
    32
  0
VERTEX
  8
T59SSILL
 62
3
 10
593.890
 20
-5496.309
 30
-650.513
 70
    32
  0
VERTEX
  8
T59SSILL
 62
3
 10
597.751
 20
-5498.299
 30
-650.510
 70
    32
  0
VERTEX
  8
T59SSILL
 62
3
 10
590.953
 20
-5508.852
 30
-650.561
 70
    32
  0
VERTEX
  8
T59SSILL
 62
3
 10
589.724
 20
-5513.800
 30
-650.581
 70
    32
  0
VERTEX
  8
T59SSILL
 62
3
 10
572.614
 20
-5540.670
 30
-650.724
 70
    32
  0
VERTEX
  8
T59SSILL
 62
3
 10
573.943
 20
-5544.015
 30
-650.730
 70
    32
  0
VERTEX
  8
T59SSILL
 62
3
 10
570.486
 20
-5550.979
 30
-650.764
 70
    32
  0
VERTEX
  8
T59SSILL
 62
3
 10
558.796
 20
-5560.935
 30
-650.835
 70
    32
  0
VERTEX
  8
T59SSILL
 62
3
 10
491.522
 20
-5591.559
 30
-650.997
 70
    32
  0
VERTEX
  8
T59SSILL
 62
3
 10
484.925
 20
-5585.883
 30
-650.977
 70
    32
  0
VERTEX
  8
T59SSILL
 62
3
 10
479.544
 20
-5588.621
 30
-650.971
 70
    32
  0
VERTEX
  8
T59SSILL
 62
3
 10
478.239
 20
-5597.138
 30
-650.980
 70
    32
  0
VERTEX
  8
T59SSILL
 62
3
 10
347.501
 20
-5656.228
 30
-650.814
 70
    32
  0
VERTEX
  8
T59SSILL
 62
3
 10
350.753
 20
-5663.233
 30
-650.830
 70
    32
  0
VERTEX
  8
T59SSILL
 62
3
 10
491.255
 20
-5602.635
 30
-651.012
 70
    32
  0
VERTEX
  8
T59SSILL
 62
3
 10
496.647
 20
-5598.643
 30
-651.017
 70
    32
  0
VERTEX
  8
T59SSILL
 62
3
 10
559.904
 20
-5570.342
 30
-650.861
 70
    32
  0
VERTEX
  8
T59SSILL
 62
3
 10
561.850
 20
-5572.060
 30
-650.860
 70
    32
  0
VERTEX
  8
T59SSILL
 62
3
 10
535.495
 20
-5625.592
 30
-651.119
 70
    32
  0
VERTEX
  8
T59SSILL
 62
3
 10
520.874
 20
-5623.308
 30
-651.095
 70
    32
  0
VERTEX
  8
T59SSILL
 62
3
 10
515.359
 20
-5634.753
 30
-651.100
 70
    32
  0
VERTEX
  8
T59SSILL
 62
3
 10
525.309
 20
-5643.054
 30
-651.130
 70
    32
  0
VERTEX
  8
T59SSILL
 62
3
 10
493.958
 20
-5705.578
 30
-651.156
 70
    32
  0
VERTEX
  8
T59SSILL
 62
3
 10
499.422
 20
-5709.562
 30
-651.171
 70
    32
  0
VERTEX
  8
T59SSILL
 62
3
 10
510.648
 20
-5687.727
 30
-651.154
 70
    32
  0
VERTEX
  8
T59SSILL
 62
3
 10
510.648
 20
-5687.727
 30
-651.163
 70
    32
  0
VERTEX
  8
T59SSILL
 62
3
 10
521.847
 20
-5694.941
 30
-651.194
 70
    32
  0
VERTEX
  8
T59SSILL
 62
3
 10
530.415
 20
-5681.382
 30
-651.191
 70
    32
  0
VERTEX
  8
T59SSILL
 62
3
 10
538.249
 20
-5679.162
 30
-651.203
 70
    32
  0
VERTEX
  8
T59SSILL
 62
3
 10
542.942
 20
-5690.214
 30
-651.227
 70
    32
  0
VERTEX
  8
T59SSILL
 62
3
 10
542.784
 20
-5693.962
 30
-651.232
 70
    32
  0
VERTEX
  8
T59SSILL
 62
3
 10
541.867
 20
-5696.622
 30
-651.234
 70
    32
  0
VERTEX
  8
T59SSILL
 62
3
 10
527.593
 20
-5702.658
 30
-651.215
 70
    32
  0
VERTEX
  8
T59SSILL
 62
3
 10
529.617
 20
-5715.741
 30
-651.236
 70
    32
  0
VERTEX
  8
T59SSILL
 62
3
 10
541.689
 20
-5731.049
 30
-651.280
 70
    32
  0
VERTEX
  8
T59SSILL
 62
3
 10
553.801
 20
-5732.746
 30
-651.305
 70
    32
  0
VERTEX
  8
T59SSILL
 62
3
 10
551.447
 20
-5719.815
 30
-651.283
 70
    32
  0
VERTEX
  8
T59SSILL
 62
3
 10
553.515
 20
-5700.277
 30
-651.260
 70
    32
  0
VERTEX
  8
T59SSILL
 62
3
 10
559.423
 20
-5692.702
 30
-651.249
 70
    32
  0
VERTEX
  8
T59SSILL
 62
3
 10
559.621
 20
-5688.582
 30
-651.236
 70
    32
  0
VERTEX
  8
T59SSILL
 62
3
 10
567.519
 20
-5670.244
 30
-651.151
 70
    32
  0
VERTEX
  8
T59SSILL
 62
3
 10
567.994
 20
-5653.230
 30
-651.096
 70
    32
  0
VERTEX
  8
T59SSILL
 62
3
 10
555.429
 20
-5611.955
 30
-651.008
 70
    32
  0
VERTEX
  8
T59SSILL
 62
3
 10
563.355
 20
-5587.596
 30
-650.904
 70
    32
  0
VERTEX
  8
T59SSILL
 62
3
 10
605.323
 20
-5502.513
 30
-650.505
 70
    32
  0
VERTEX
  8
T59SSILL
 62
3
 10
612.317
 20
-5500.515
 30
-650.484
 70
    32
  0
VERTEX
  8
T59SSILL
 62
3
 10
633.978
 20
-5503.253
 30
-650.444
 70
    32
  0
VERTEX
  8
T59SSILL
 62
3
 10
669.328
 20
-5578.784
 30
-650.585
 70
    32
  0
VERTEX
  8
T59SSILL
 62
3
 10
662.336
 20
-5593.012
 30
-650.637
 70
    32
  0
VERTEX
  8
T59SSILL
 62
3
 10
667.628
 20
-5601.634
 30
-650.650
 70
    32
  0
VERTEX
  8
T59SSILL
 62
3
 10
679.206
 20
-5601.959
 30
-650.629
 70
    32
  0
VERTEX
  8
T59SSILL
 62
3
 10
715.150
 20
-5676.095
 30
-650.769
 70
    32
  0
VERTEX
  8
T59SSILL
 62
3
 10
703.914
 20
-5671.160
 30
-650.767
 70
    32
  0
VERTEX
  8
T59SSILL
 62
3
 10
702.093
 20
-5668.150
 30
-650.763
 70
    32
  0
VERTEX
  8
T59SSILL
 62
3
 10
669.677
 20
-5653.589
 30
-650.793
 70
    32
  0
VERTEX
  8
T59SSILL
 62
3
 10
667.981
 20
-5646.867
 30
-650.778
 70
    32
  0
VERTEX
  8
T59SSILL
 62
3
 10
671.069
 20
-5622.168
 30
-650.701
 70
    32
  0
VERTEX
  8
T59SSILL
 62
3
 10
667.432
 20
-5622.088
 30
-650.708
 70
    32
  0
VERTEX
  8
T59SSILL
 62
3
 10
658.593
 20
-5617.429
 30
-650.715
 70
    32
  0
VERTEX
  8
T59SSILL
 62
3
 10
649.750
 20
-5627.299
 30
-650.762
 70
    32
  0
VERTEX
  8
T59SSILL
 62
3
 10
657.049
 20
-5648.761
 30
-650.807
 70
    32
  0
VERTEX
  8
T59SSILL
 62
3
 10
652.289
 20
-5647.102
 30
-650.813
 70
    32
  0
VERTEX
  8
T59SSILL
 62
3
 10
651.368
 20
-5640.628
 30
-650.796
 70
    32
  0
VERTEX
  8
T59SSILL
 62
3
 10
635.350
 20
-5621.127
 30
-650.776
 70
    32
  0
VERTEX
  8
T59SSILL
 62
3
 10
636.777
 20
-5618.688
 30
-650.766
 70
    32
  0
VERTEX
  8
T59SSILL
 62
3
 10
633.133
 20
-5613.896
 30
-650.761
 70
    32
  0
VERTEX
  8
T59SSILL
 62
3
 10
628.556
 20
-5617.870
 30
-650.782
 70
    32
  0
VERTEX
  8
T59SSILL
 62
3
 10
620.979
 20
-5616.303
 30
-650.799
 70
    32
  0
VERTEX
  8
T59SSILL
 62
3
 10
612.966
 20
-5617.756
 30
-650.831
 70
    32
  0
VERTEX
  8
T59SSILL
 62
3
 10
611.857
 20
-5636.448
 30
-650.893
 70
    32
  0
VERTEX
  8
T59SSILL
 62
3
 10
613.703
 20
-5660.758
 30
-650.964
 70
    32
  0
VERTEX
  8
T59SSILL
 62
3
 10
617.780
 20
-5670.408
 30
-650.981
 70
    32
  0
VERTEX
  8
T59SSILL
 62
3
 10
624.414
 20
-5700.179
 30
-651.052
 70
    32
  0
VERTEX
  8
T59SSILL
 62
3
 10
542.863
 20
-5758.597
 30
-651.319
 70
    32
  0
VERTEX
  8
T59SSILL
 62
3
 10
533.737
 20
-5755.305
 30
-651.297
 70
    32
  0
VERTEX
  8
T59SSILL
 62
3
 10
529.677
 20
-5758.047
 30
-651.293
 70
    32
  0
VERTEX
  8
T59SSILL
 62
3
 10
525.038
 20
-5756.356
 30
-651.282
 70
    32
  0
VERTEX
  8
T59SSILL
 62
3
 10
514.199
 20
-5765.264
 30
-651.274
 70
    32
  0
VERTEX
  8
T59SSILL
 62
3
 10
512.488
 20
-5770.813
 30
-651.278
 70
    32
  0
VERTEX
  8
T59SSILL
 62
3
 10
513.417
 20
-5780.771
 30
-651.294
 70
    32
  0
VERTEX
  8
T59SSILL
 62
3
 10
508.612
 20
-5784.612
 30
-651.290
 70
    32
  0
VERTEX
  8
T59SSILL
 62
3
 10
513.380
 20
-5790.982
 30
-651.307
 70
    32
  0
VERTEX
  8
T59SSILL
 62
3
 10
563.004
 20
-5755.130
 30
-651.352
 70
    32
  0
VERTEX
  8
T59SSILL
 62
3
 10
573.192
 20
-5753.108
 30
-651.368
 70
    32
  0
VERTEX
  8
T59SSILL
 62
3
 10
580.667
 20
-5755.024
 30
-651.374
 70
    32
  0
VERTEX
  8
T59SSILL
 62
3
 10
587.799
 20
-5751.930
 30
-651.340
 70
    32
  0
VERTEX
  8
T59SSILL
 62
3
 10
589.472
 20
-5745.745
 30
-651.315
 70
    32
  0
VERTEX
  8
T59SSILL
 62
3
 10
587.836
 20
-5741.718
 30
-651.308
 70
    32
  0
VERTEX
  8
T59SSILL
 62
3
 10
585.955
 20
-5741.436
 30
-651.313
 70
    32
  0
VERTEX
  8
T59SSILL
 62
3
 10
587.867
 20
-5737.643
 30
-651.295
 70
    32
  0
VERTEX
  8
T59SSILL
 62
3
 10
640.153
 20
-5698.640
 30
-650.994
 70
    32
  0
VERTEX
  8
T59SSILL
 62
3
 10
646.802
 20
-5699.498
 30
-650.974
 70
    32
  0
VERTEX
  8
T59SSILL
 62
3
 10
650.979
 20
-5695.653
 30
-650.954
 70
    32
  0
VERTEX
  8
T59SSILL
 62
3
 10
651.708
 20
-5691.482
 30
-650.940
 70
    32
  0
VERTEX
  8
T59SSILL
 62
3
 10
661.853
 20
-5682.885
 30
-650.894
 70
    32
  0
VERTEX
  8
T59SSILL
 62
3
 10
665.966
 20
-5683.551
 30
-650.886
 70
    32
  0
VERTEX
  8
T59SSILL
 62
3
 10
666.772
 20
-5685.148
 30
-650.889
 70
    32
  0
VERTEX
  8
T59SSILL
 62
3
 10
656.925
 20
-5704.256
 30
-650.965
 70
    32
  0
VERTEX
  8
T59SSILL
 62
3
 10
652.821
 20
-5717.921
 30
-651.013
 70
    32
  0
VERTEX
  8
T59SSILL
 62
3
 10
653.061
 20
-5724.508
 30
-651.032
 70
    32
  0
VERTEX
  8
T59SSILL
 62
3
 10
662.653
 20
-5731.552
 30
-651.030
 70
    32
  0
VERTEX
  8
T59SSILL
 62
3
 10
674.175
 20
-5730.924
 30
-651.003
 70
    32
  0
VERTEX
  8
T59SSILL
 62
3
 10
695.573
 20
-5750.501
 30
-651.011
 70
    32
  0
VERTEX
  8
T59SSILL
 62
3
 10
712.330
 20
-5742.497
 30
-650.952
 70
    32
  0
VERTEX
  8
T59SSILL
 62
3
 10
714.520
 20
-5735.079
 30
-650.926
 70
    32
  0
VERTEX
  8
T59SSILL
 62
3
 10
703.470
 20
-5723.704
 30
-650.918
 70
    32
  0
VERTEX
  8
T59SSILL
 62
3
 10
700.048
 20
-5714.334
 30
-650.899
 70
    32
  0
VERTEX
  8
T59SSILL
 62
3
 10
700.665
 20
-5703.132
 30
-650.865
 70
    32
  0
VERTEX
  8
T59SSILL
 62
3
 10
693.005
 20
-5680.538
 30
-650.818
 70
    32
  0
VERTEX
  8
T59SSILL
 62
3
 10
694.065
 20
-5676.451
 30
-650.804
 70
    32
  0
VERTEX
  8
T59SSILL
 62
3
 10
701.897
 20
-5677.757
 30
-650.791
 70
    32
  0
VERTEX
  8
T59SSILL
 62
3
 10
711.982
 20
-5682.735
 30
-650.783
 70
    32
  0
VERTEX
  8
T59SSILL
 62
3
 10
722.334
 20
-5692.679
 30
-650.800
 70
    32
  0
VERTEX
  8
T59SSILL
 62
3
 10
746.565
 20
-5740.827
 30
-650.892
 70
    32
  0
VERTEX
  8
T59SSILL
 62
3
 10
770.346
 20
-5877.742
 30
-651.208
 70
    32
  0
VERTEX
  8
T59SSILL
 62
3
 10
768.525
 20
-5885.580
 30
-651.235
 70
    32
  0
VERTEX
  8
T59SSILL
 62
3
 10
761.360
 20
-5895.204
 30
-651.278
 70
    32
  0
VERTEX
  8
T59SSILL
 62
3
 10
752.331
 20
-5900.668
 30
-651.313
 70
    32
  0
VERTEX
  8
T59SSILL
 62
3
 10
674.651
 20
-5923.077
 30
-651.586
 70
    32
  0
VERTEX
  8
T59SSILL
 62
3
 10
672.420
 20
-5917.269
 30
-651.575
 70
    32
  0
VERTEX
  8
T59SSILL
 62
3
 10
646.966
 20
-5925.486
 30
-651.687
 70
    32
  0
VERTEX
  8
T59SSILL
 62
3
 10
649.711
 20
-5930.899
 30
-651.695
 70
    32
  0
VERTEX
  8
T59SSILL
 62
3
 10
638.703
 20
-5938.173
 30
-651.741
 70
    32
  0
VERTEX
  8
T59SSILL
 62
3
 10
633.640
 20
-5944.729
 30
-651.740
 70
    32
  0
VERTEX
  8
T59SSILL
 62
3
 10
621.458
 20
-5944.561
 30
-651.717
 70
    32
  0
VERTEX
  8
T59SSILL
 62
3
 10
618.656
 20
-5969.120
 30
-651.745
 70
    32
  0
VERTEX
  8
T59SSILL
 62
3
 10
628.696
 20
-5974.174
 30
-651.771
 70
    32
  0
VERTEX
  8
T59SSILL
 62
3
 10
631.156
 20
-5996.386
 30
-651.805
 70
    32
  0
VERTEX
  8
T59SSILL
 62
3
 10
624.189
 20
-6000.600
 30
-651.798
 70
    32
  0
VERTEX
  8
T59SSILL
 62
3
 10
625.680
 20
-6002.598
 30
-651.803
 70
    32
  0
VERTEX
  8
T59SSILL
 62
3
 10
624.388
 20
-6014.429
 30
-651.817
 70
    32
  0
VERTEX
  8
T59SSILL
 62
3
 10
619.669
 20
-6031.419
 30
-651.831
 70
    32
  0
VERTEX
  8
T59SSILL
 62
3
 10
616.402
 20
-6035.955
 30
-651.831
 70
    32
  0
VERTEX
  8
T59SSILL
 62
3
 10
616.579
 20
-6053.148
 30
-651.854
 70
    32
  0
VERTEX
  8
T59SSILL
 62
3
 10
622.887
 20
-6063.183
 30
-651.880
 70
    32
  0
VERTEX
  8
T59SSILL
 62
3
 10
625.378
 20
-6063.821
 30
-651.885
 70
    32
  0
VERTEX
  8
T59SSILL
 62
3
 10
631.205
 20
-6061.908
 30
-651.894
 70
    32
  0
VERTEX
  8
T59SSILL
 62
3
 10
634.725
 20
-6063.763
 30
-651.903
 70
    32
  0
VERTEX
  8
T59SSILL
 62
3
 10
636.048
 20
-6073.747
 30
-651.919
 70
    32
  0
VERTEX
  8
T59SSILL
 62
3
 10
629.186
 20
-6075.156
 30
-651.908
 70
    32
  0
VERTEX
  8
T59SSILL
 62
3
 10
629.328
 20
-6083.836
 30
-651.920
 70
    32
  0
VERTEX
  8
T59SSILL
 62
3
 10
637.162
 20
-6083.915
 30
-651.935
 70
    32
  0
VERTEX
  8
T59SSILL
 62
3
 10
638.446
 20
-6099.914
 30
-651.959
 70
    32
  0
VERTEX
  8
T59SSILL
 62
3
 10
645.415
 20
-6099.897
 30
-651.972
 70
    32
  0
VERTEX
  8
T59SSILL
 62
3
 10
645.196
 20
-6085.749
 30
-651.952
 70
    32
  0
VERTEX
  8
T59SSILL
 62
3
 10
652.871
 20
-6079.801
 30
-651.958
 70
    32
  0
VERTEX
  8
T59SSILL
 62
3
 10
652.905
 20
-6073.271
 30
-651.950
 70
    32
  0
VERTEX
  8
T59SSILL
 62
3
 10
643.869
 20
-6068.599
 30
-651.926
 70
    32
  0
VERTEX
  8
T59SSILL
 62
3
 10
642.833
 20
-6062.672
 30
-651.917
 70
    32
  0
VERTEX
  8
T59SSILL
 62
3
 10
648.724
 20
-6054.350
 30
-651.916
 70
    32
  0
VERTEX
  8
T59SSILL
 62
3
 10
657.924
 20
-6054.717
 30
-651.934
 70
    32
  0
VERTEX
  8
T59SSILL
 62
3
 10
663.367
 20
-6060.459
 30
-651.952
 70
    32
  0
VERTEX
  8
T59SSILL
 62
3
 10
661.808
 20
-6071.520
 30
-651.964
 70
    32
  0
VERTEX
  8
T59SSILL
 62
3
 10
664.740
 20
-6076.305
 30
-651.976
 70
    32
  0
VERTEX
  8
T59SSILL
 62
3
 10
677.944
 20
-6078.400
 30
-652.004
 70
    32
  0
VERTEX
  8
T59SSILL
 62
3
 10
684.643
 20
-6074.644
 30
-652.011
 70
    32
  0
VERTEX
  8
T59SSILL
 62
3
 10
688.011
 20
-6070.986
 30
-652.007
 70
    32
  0
VERTEX
  8
T59SSILL
 62
3
 10
689.407
 20
-6057.578
 30
-651.960
 70
    32
  0
VERTEX
  8
T59SSILL
 62
3
 10
694.525
 20
-6042.356
 30
-651.895
 70
    32
  0
VERTEX
  8
T59SSILL
 62
3
 10
692.775
 20
-6037.649
 30
-651.886
 70
    32
  0
VERTEX
  8
T59SSILL
 62
3
 10
695.280
 20
-6032.667
 30
-651.862
 70
    32
  0
VERTEX
  8
T59SSILL
 62
3
 10
699.584
 20
-5990.669
 30
-651.714
 70
    32
  0
VERTEX
  8
T59SSILL
 62
3
 10
698.374
 20
-5986.789
 30
-651.706
 70
    32
  0
VERTEX
  8
T59SSILL
 62
3
 10
698.905
 20
-5967.862
 30
-651.645
 70
    32
  0
VERTEX
  8
T59SSILL
 62
3
 10
704.188
 20
-5963.379
 30
-651.612
 70
    32
  0
VERTEX
  8
T59SSILL
 62
3
 10
706.312
 20
-5958.174
 30
-651.589
 70
    32
  0
VERTEX
  8
T59SSILL
 62
3
 10
703.800
 20
-5953.021
 30
-651.581
 70
    32
  0
VERTEX
  8
T59SSILL
 62
3
 10
667.469
 20
-5947.427
 30
-651.687
 70
    32
  0
VERTEX
  8
T59SSILL
 62
3
 10
662.124
 20
-5935.397
 30
-651.667
 70
    32
  0
VERTEX
  8
T59SSILL
 62
3
 10
754.600
 20
-5907.111
 30
-651.327
 70
    32
  0
VERTEX
  8
T59SSILL
 62
3
 10
762.571
 20
-5903.281
 30
-651.298
 70
    32
  0
VERTEX
  8
T59SSILL
 62
3
 10
769.547
 20
-5897.128
 30
-651.265
 70
    32
  0
VERTEX
  8
T59SSILL
 62
3
 10
773.108
 20
-5891.740
 30
-651.242
 70
    32
  0
VERTEX
  8
T59SSILL
 62
3
 10
853.290
 20
-6350.810
 30
-652.370
 70
    32
  0
VERTEX
  8
T59SSILL
 62
3
 10
847.371
 20
-6352.631
 30
-652.389
 70
    32
  0
VERTEX
  8
T59SSILL
 62
3
 10
853.946
 20
-6385.561
 30
-652.468
 70
    32
  0
VERTEX
  8
T59SSILL
 62
3
 10
842.464
 20
-6388.663
 30
-652.502
 70
    32
  0
VERTEX
  8
T59SSILL
 62
3
 10
840.473
 20
-6393.112
 30
-652.519
 70
    32
  0
VERTEX
  8
T59SSILL
 62
3
 10
842.500
 20
-6396.654
 30
-652.525
 70
    32
  0
VERTEX
  8
T59SSILL
 62
3
 10
854.470
 20
-6394.372
 30
-652.492
 70
    32
  0
VERTEX
  8
T59SSILL
 62
3
 10
857.279
 20
-6400.734
 30
-652.504
 70
    32
  0
VERTEX
  8
T59SSILL
 62
3
 10
857.165
 20
-6413.541
 30
-652.540
 70
    32
  0
VERTEX
  8
T59SSILL
 62
3
 10
863.348
 20
-6429.368
 30
-652.572
 70
    32
  0
VERTEX
  8
T59SSILL
 62
3
 10
869.298
 20
-6433.142
 30
-652.569
 70
    32
  0
VERTEX
  8
T59SSILL
 62
3
 10
884.124
 20
-6521.367
 30
-652.787
 70
    32
  0
VERTEX
  8
T59SSILL
 62
3
 10
953.487
 20
-6901.350
 30
-653.681
 70
    32
  0
VERTEX
  8
T59SSILL
 62
3
 10
1026.487
 20
-7028.563
 30
-654.144
 70
    32
  0
VERTEX
  8
T59SSILL
 62
3
 10
1027.275
 20
-7032.885
 30
-654.158
 70
    32
  0
VERTEX
  8
T59SSILL
 62
3
 10
1023.772
 20
-7043.439
 30
-654.188
 70
    32
  0
VERTEX
  8
T59SSILL
 62
3
 10
1029.575
 20
-7056.738
 30
-654.234
 70
    32
  0
VERTEX
  8
T59SSILL
 62
3
 10
1028.927
 20
-7060.488
 30
-654.245
 70
    32
  0
VERTEX
  8
T59SSILL
 62
3
 10
1025.207
 20
-7065.284
 30
-654.257
 70
    32
  0
VERTEX
  8
T59SSILL
 62
3
 10
1028.541
 20
-7072.937
 30
-654.283
 70
    32
  0
VERTEX
  8
T59SSILL
 62
3
 10
1033.049
 20
-7072.463
 30
-654.286
 70
    32
  0
VERTEX
  8
T59SSILL
 62
3
 10
1053.384
 20
-7093.794
 30
-654.371
 70
    32
  0
VERTEX
  8
T59SSILL
 62
3
 10
1064.475
 20
-7101.743
 30
-654.406
 70
    32
  0
VERTEX
  8
T59SSILL
 62
3
 10
1070.467
 20
-7104.156
 30
-654.419
 70
    32
  0
VERTEX
  8
T59SSILL
 62
3
 10
1079.201
 20
-7119.287
 30
-654.473
 70
    32
  0
VERTEX
  8
T59SSILL
 62
3
 10
1074.718
 20
-7126.081
 30
-654.490
 70
    32
  0
VERTEX
  8
T59SSILL
 62
3
 10
928.030
 20
-7076.851
 30
-653.910
 70
    32
  0
VERTEX
  8
T59SSILL
 62
3
 10
924.522
 20
-7066.882
 30
-653.883
 70
    32
  0
VERTEX
  8
T59SSILL
 62
3
 10
920.337
 20
-7065.668
 30
-653.868
 70
    32
  0
VERTEX
  8
T59SSILL
 62
3
 10
904.980
 20
-7070.396
 30
-653.830
 70
    32
  0
VERTEX
  8
T59SSILL
 62
3
 10
803.692
 20
-7036.137
 30
-653.563
 70
    32
  0
VERTEX
  8
T59SSILL
 62
3
 10
801.015
 20
-7044.381
 30
-653.570
 70
    32
  0
VERTEX
  8
T59SSILL
 62
3
 10
1071.912
 20
-7135.074
 30
-654.516
 70
    32
  0
VERTEX
  8
T59SSILL
 62
3
 10
1081.365
 20
-7144.891
 30
-654.555
 70
    32
  0
VERTEX
  8
T59SSILL
 62
3
 10
1098.641
 20
-7154.441
 30
-654.600
 70
    32
  0
VERTEX
  8
T59SSILL
 62
3
 10
1176.073
 20
-7287.170
 30
-655.082
 70
    32
  0
VERTEX
  8
T59SSILL
 62
3
 10
1177.528
 20
-7295.188
 30
-655.108
 70
    32
  0
VERTEX
  8
T59SSILL
 62
3
 10
1148.129
 20
-7450.042
 30
-655.561
 70
    32
  0
VERTEX
  8
T59SSILL
 62
3
 10
1152.860
 20
-7489.220
 30
-655.687
 70
    32
  0
VERTEX
  8
T59SSILL
 62
3
 10
1147.381
 20
-7490.225
 30
-655.685
 70
    32
  0
VERTEX
  8
T59SSILL
 62
3
 10
1144.262
 20
-7493.513
 30
-655.692
 70
    32
  0
VERTEX
  8
T59SSILL
 62
3
 10
1148.295
 20
-7502.903
 30
-655.725
 70
    32
  0
VERTEX
  8
T59SSILL
 62
3
 10
1146.712
 20
-7515.478
 30
-655.762
 70
    32
  0
VERTEX
  8
T59SSILL
 62
3
 10
1148.644
 20
-7525.240
 30
-655.794
 70
    32
  0
VERTEX
  8
T59SSILL
 62
3
 10
1157.941
 20
-7539.432
 30
-655.847
 70
    32
  0
VERTEX
  8
T59SSILL
 62
3
 10
1172.994
 20
-7670.124
 30
-656.265
 70
    32
  0
VERTEX
  8
T59SSILL
 62
3
 10
1172.411
 20
-7673.886
 30
-656.276
 70
    32
  0
VERTEX
  8
T59SSILL
 62
3
 10
1167.614
 20
-7679.196
 30
-656.288
 70
    32
  0
VERTEX
  8
T59SSILL
 62
3
 10
1167.358
 20
-7691.373
 30
-656.321
 70
    32
  0
VERTEX
  8
T59SSILL
 62
3
 10
1175.372
 20
-7698.541
 30
-656.355
 70
    32
  0
VERTEX
  8
T59SSILL
 62
3
 10
1188.075
 20
-7809.788
 30
-656.682
 70
    32
  0
VERTEX
  8
T59SSILL
 62
3
 10
1185.619
 20
-7812.215
 30
-656.677
 70
    32
  0
VERTEX
  8
T59SSILL
 62
3
 10
1133.242
 20
-7764.800
 30
-656.353
 70
    32
  0
VERTEX
  8
T59SSILL
 62
3
 10
1134.483
 20
-7761.741
 30
-656.351
 70
    32
  0
VERTEX
  8
T59SSILL
 62
3
 10
1130.725
 20
-7756.252
 30
-656.322
 70
    32
  0
VERTEX
  8
T59SSILL
 62
3
 10
1126.852
 20
-7753.439
 30
-656.300
 70
    32
  0
VERTEX
  8
T59SSILL
 62
3
 10
1122.206
 20
-7753.887
 30
-656.282
 70
    32
  0
VERTEX
  8
T59SSILL
 62
3
 10
981.009
 20
-7624.844
 30
-655.404
 70
    32
  0
VERTEX
  8
T59SSILL
 62
3
 10
976.559
 20
-7630.335
 30
-655.399
 70
    32
  0
VERTEX
  8
T59SSILL
 62
3
 10
999.403
 20
-7652.035
 30
-655.543
 70
    32
  0
VERTEX
  8
T59SSILL
 62
3
 10
986.564
 20
-7661.008
 30
-655.511
 70
    32
  0
VERTEX
  8
T59SSILL
 62
3
 10
984.753
 20
-7659.403
 30
-655.500
 70
    32
  0
VERTEX
  8
T59SSILL
 62
3
 10
978.658
 20
-7663.816
 30
-655.485
 70
    32
  0
VERTEX
  8
T59SSILL
 62
3
 10
983.578
 20
-7671.057
 30
-655.522
 70
    32
  0
VERTEX
  8
T59SSILL
 62
3
 10
1004.256
 20
-7656.947
 30
-655.574
 70
    32
  0
VERTEX
  8
T59SSILL
 62
3
 10
1107.263
 20
-7750.556
 30
-656.213
 70
    32
  0
VERTEX
  8
T59SSILL
 62
3
 10
1106.735
 20
-7763.254
 30
-656.241
 70
    32
  0
VERTEX
  8
T59SSILL
 62
3
 10
1110.411
 20
-7768.478
 30
-656.268
 70
    32
  0
VERTEX
  8
T59SSILL
 62
3
 10
1117.686
 20
-7771.961
 30
-656.306
 70
    32
  0
VERTEX
  8
T59SSILL
 62
3
 10
1128.953
 20
-7770.066
 30
-656.347
 70
    32
  0
VERTEX
  8
T59SSILL
 62
3
 10
1173.699
 20
-7812.313
 30
-656.629
 70
    32
  0
VERTEX
  8
T59SSILL
 62
3
 10
1182.985
 20
-7845.127
 30
-656.743
 70
    32
  0
VERTEX
  8
T59SSILL
 62
3
 10
1188.985
 20
-7855.798
 30
-656.764
 70
    32
  0
VERTEX
  8
T59SSILL
 62
3
 10
1194.175
 20
-8001.553
 30
-656.477
 70
    32
  0
VERTEX
  8
T59SSILL
 62
3
 10
1190.786
 20
-8010.598
 30
-656.474
 70
    32
  0
VERTEX
  8
T59SSILL
 62
3
 10
1194.488
 20
-8021.528
 30
-656.490
 70
    32
  0
VERTEX
  8
T59SSILL
 62
3
 10
1199.783
 20
-8120.699
 30
-656.701
 70
    32
  0
VERTEX
  8
T59SSILL
 62
3
 10
1188.855
 20
-8127.878
 30
-656.635
 70
    32
  0
VERTEX
  8
T59SSILL
 62
3
 10
1186.899
 20
-8125.374
 30
-656.607
 70
    32
  0
VERTEX
  8
T59SSILL
 62
3
 10
1179.697
 20
-8130.026
 30
-656.563
 70
    32
  0
VERTEX
  8
T59SSILL
 62
3
 10
1181.892
 20
-8133.450
 30
-656.598
 70
    32
  0
VERTEX
  8
T59SSILL
 62
3
 10
1132.412
 20
-8168.172
 30
-656.415
 70
    32
  0
VERTEX
  8
T59SSILL
 62
3
 10
1136.476
 20
-8173.834
 30
-656.429
 70
    32
  0
VERTEX
  8
T59SSILL
 62
3
 10
1199.120
 20
-8130.504
 30
-656.738
 70
    32
  0
VERTEX
  8
T59SSILL
 62
3
 10
1206.313
 20
-8255.189
 30
-656.762
 70
    32
  0
VERTEX
  8
T59SSILL
 62
3
 10
549.021
 20
-8483.958
 30
-655.608
 70
    32
  0
VERTEX
  8
T59SSILL
 62
3
 10
541.688
 20
-8481.708
 30
-655.565
 70
    32
  0
VERTEX
  8
T59SSILL
 62
3
 10
524.997
 20
-8487.346
 30
-655.494
 70
    32
  0
VERTEX
  8
T59SSILL
 62
3
 10
524.233
 20
-8492.640
 30
-655.504
 70
    32
  0
VERTEX
  8
T59SSILL
 62
3
 10
-272.963
 20
-8771.505
 30
-654.116
 70
    32
  0
VERTEX
  8
T59SSILL
 62
3
 10
-277.301
 20
-8769.236
 30
-654.103
 70
    32
  0
VERTEX
  8
T59SSILL
 62
3
 10
-293.737
 20
-8773.109
 30
-654.075
 70
    32
  0
VERTEX
  8
T59SSILL
 62
3
 10
-299.935
 20
-8780.707
 30
-654.075
 70
    32
  0
VERTEX
  8
T59SSILL
 62
3
 10
-325.406
 20
-8789.799
 30
-654.006
 70
    32
  0
VERTEX
  8
T59SSILL
 62
3
 10
-366.227
 20
-8802.455
 30
-653.880
 70
    32
  0
VERTEX
  8
T59SSILL
 62
3
 10
-1024.839
 20
-9033.345
 30
-652.777
 70
    32
  0
VERTEX
  8
T59SSILL
 62
3
 10
-1021.662
 20
-9042.112
 30
-652.786
 70
    32
  0
VERTEX
  8
T59SSILL
 62
3
 10
-812.831
 20
-8968.839
 30
-652.817
 70
    32
  0
VERTEX
  8
T59SSILL
 62
3
 10
-809.757
 20
-8971.596
 30
-652.838
 70
    32
  0
VERTEX
  8
T59SSILL
 62
3
 10
-800.214
 20
-8969.909
 30
-652.914
 70
    32
  0
VERTEX
  8
T59SSILL
 62
3
 10
-777.679
 20
-8962.336
 30
-653.013
 70
    32
  0
VERTEX
  8
T59SSILL
 62
3
 10
-775.707
 20
-8956.074
 30
-652.892
 70
    32
  0
VERTEX
  8
T59SSILL
 62
3
 10
-583.376
 20
-8888.181
 30
-653.431
 70
    32
  0
VERTEX
  8
T59SSILL
 62
3
 10
-579.681
 20
-8890.598
 30
-653.437
 70
    32
  0
VERTEX
  8
T59SSILL
 62
3
 10
-573.658
 20
-8891.246
 30
-653.447
 70
    32
  0
VERTEX
  8
T59SSILL
 62
3
 10
-551.580
 20
-8883.475
 30
-653.483
 70
    32
  0
VERTEX
  8
T59SSILL
 62
3
 10
-544.208
 20
-8874.609
 30
-653.494
 70
    32
  0
VERTEX
  8
T59SSILL
 62
3
 10
-359.109
 20
-8809.949
 30
-653.914
 70
    32
  0
VERTEX
  8
T59SSILL
 62
3
 10
-348.347
 20
-8809.671
 30
-653.941
 70
    32
  0
VERTEX
  8
T59SSILL
 62
3
 10
-338.162
 20
-8806.973
 30
-653.970
 70
    32
  0
VERTEX
  8
T59SSILL
 62
3
 10
-327.099
 20
-8801.472
 30
-654.006
 70
    32
  0
VERTEX
  8
T59SSILL
 62
3
 10
-321.837
 20
-8796.842
 30
-654.025
 70
    32
  0
VERTEX
  8
T59SSILL
 62
3
 10
-293.343
 20
-8788.391
 30
-654.094
 70
    32
  0
VERTEX
  8
T59SSILL
 62
3
 10
-137.058
 20
-8733.256
 30
-654.255
 70
    32
  0
VERTEX
  8
T59SSILL
 62
3
 10
-132.562
 20
-8733.127
 30
-654.255
 70
    32
  0
VERTEX
  8
T59SSILL
 62
3
 10
-126.276
 20
-8736.052
 30
-654.264
 70
    32
  0
VERTEX
  8
T59SSILL
 62
3
 10
-99.832
 20
-8726.124
 30
-654.234
 70
    32
  0
VERTEX
  8
T59SSILL
 62
3
 10
-92.772
 20
-8717.452
 30
-654.208
 70
    32
  0
VERTEX
  8
T59SSILL
 62
3
 10
64.804
 20
-8662.264
 30
-654.119
 70
    32
  0
VERTEX
  8
T59SSILL
 62
3
 10
72.338
 20
-8665.584
 30
-654.133
 70
    32
  0
VERTEX
  8
T59SSILL
 62
3
 10
93.552
 20
-8657.770
 30
-654.170
 70
    32
  0
VERTEX
  8
T59SSILL
 62
3
 10
98.920
 20
-8650.264
 30
-654.178
 70
    32
  0
VERTEX
  8
T59SSILL
 62
3
 10
290.162
 20
-8583.573
 30
-654.757
 70
    32
  0
VERTEX
  8
T59SSILL
 62
3
 10
295.403
 20
-8585.911
 30
-654.768
 70
    32
  0
VERTEX
  8
T59SSILL
 62
3
 10
318.036
 20
-8579.286
 30
-654.827
 70
    32
  0
VERTEX
  8
T59SSILL
 62
3
 10
320.297
 20
-8572.821
 30
-654.836
 70
    32
  0
VERTEX
  8
T59SSILL
 62
3
 10
487.181
 20
-8514.904
 30
-655.332
 70
    32
  0
VERTEX
  8
T59SSILL
 62
3
 10
492.987
 20
-8518.049
 30
-655.321
 70
    32
  0
VERTEX
  8
T59SSILL
 62
3
 10
518.666
 20
-8509.830
 30
-655.424
 70
    32
  0
VERTEX
  8
T59SSILL
 62
3
 10
522.743
 20
-8502.045
 30
-655.483
 70
    32
  0
VERTEX
  8
T59SSILL
 62
3
 10
686.611
 20
-8446.000
 30
-655.868
 70
    32
  0
VERTEX
  8
T59SSILL
 62
3
 10
691.446
 20
-8448.719
 30
-655.890
 70
    32
  0
VERTEX
  8
T59SSILL
 62
3
 10
717.261
 20
-8439.953
 30
-655.910
 70
    32
  0
VERTEX
  8
T59SSILL
 62
3
 10
719.165
 20
-8433.554
 30
-655.887
 70
    32
  0
VERTEX
  8
T59SSILL
 62
3
 10
920.029
 20
-8363.863
 30
-656.107
 70
    32
  0
VERTEX
  8
T59SSILL
 62
3
 10
924.291
 20
-8366.968
 30
-656.125
 70
    32
  0
VERTEX
  8
T59SSILL
 62
3
 10
950.440
 20
-8358.433
 30
-656.166
 70
    32
  0
VERTEX
  8
T59SSILL
 62
3
 10
956.349
 20
-8352.323
 30
-656.166
 70
    32
  0
VERTEX
  8
T59SSILL
 62
3
 10
1116.280
 20
-8296.898
 30
-656.478
 70
    32
  0
VERTEX
  8
T59SSILL
 62
3
 10
1120.258
 20
-8298.131
 30
-656.491
 70
    32
  0
VERTEX
  8
T59SSILL
 62
3
 10
1152.653
 20
-8287.512
 30
-656.588
 70
    32
  0
VERTEX
  8
T59SSILL
 62
3
 10
1153.923
 20
-8283.288
 30
-656.590
 70
    32
  0
VERTEX
  8
T59SSILL
 62
3
 10
1312.235
 20
-8227.302
 30
-657.045
 70
    32
  0
VERTEX
  8
T59SSILL
 62
3
 10
1329.602
 20
-8226.775
 30
-657.092
 70
    32
  0
VERTEX
  8
T59SSILL
 62
3
 10
1333.963
 20
-8231.993
 30
-657.108
 70
    32
  0
VERTEX
  8
T59SSILL
 62
3
 10
1348.745
 20
-8227.021
 30
-657.146
 70
    32
  0
VERTEX
  8
T59SSILL
 62
3
 10
1347.170
 20
-8221.168
 30
-657.137
 70
    32
  0
VERTEX
  8
T59SSILL
 62
3
 10
1354.436
 20
-8219.428
 30
-657.156
 70
    32
  0
VERTEX
  8
T59SSILL
 62
3
 10
1368.002
 20
-8239.020
 30
-657.207
 70
    32
  0
VERTEX
  8
T59SSILL
 62
3
 10
1366.538
 20
-8245.360
 30
-657.207
 70
    32
  0
VERTEX
  8
T59SSILL
 62
3
 10
1354.272
 20
-8254.293
 30
-657.179
 70
    32
  0
VERTEX
  8
T59SSILL
 62
3
 10
1360.292
 20
-8262.459
 30
-657.201
 70
    32
  0
VERTEX
  8
T59SSILL
 62
3
 10
1373.477
 20
-8253.287
 30
-657.232
 70
    32
  0
VERTEX
  8
T59SSILL
 62
3
 10
1379.462
 20
-8255.013
 30
-657.250
 70
    32
  0
VERTEX
  8
T59SSILL
 62
3
 10
1400.417
 20
-8283.735
 30
-657.327
 70
    32
  0
VERTEX
  8
T59SSILL
 62
3
 10
1342.232
 20
-8325.531
 30
-657.194
 70
    32
  0
VERTEX
  8
T59SSILL
 62
3
 10
1346.326
 20
-8331.829
 30
-657.209
 70
    32
  0
VERTEX
  8
T59SSILL
 62
3
 10
1450.549
 20
-8257.629
 30
-657.520
 70
    32
  0
VERTEX
  8
T59SSILL
 62
3
 10
1484.433
 20
-8303.891
 30
-657.717
 70
    32
  0
VERTEX
  8
T59SSILL
 62
3
 10
1520.416
 20
-8356.717
 30
-657.839
 70
    32
  0
VERTEX
  8
T59SSILL
 62
3
 10
1530.402
 20
-8365.357
 30
-657.851
 70
    32
  0
VERTEX
  8
T59SSILL
 62
3
 10
1545.269
 20
-8368.426
 30
-657.839
 70
    32
  0
VERTEX
  8
T59SSILL
 62
3
 10
1434.031
 20
-8448.127
 30
-657.544
 70
    32
  0
VERTEX
  8
T59SSILL
 62
3
 10
1429.010
 20
-8442.950
 30
-657.525
 70
    32
  0
VERTEX
  8
T59SSILL
 62
3
 10
1421.072
 20
-8449.131
 30
-657.495
 70
    32
  0
VERTEX
  8
T59SSILL
 62
3
 10
1418.406
 20
-8449.233
 30
-657.488
 70
    32
  0
VERTEX
  8
T59SSILL
 62
3
 10
1403.173
 20
-8460.682
 30
-657.446
 70
    32
  0
VERTEX
  8
T59SSILL
 62
3
 10
1406.482
 20
-8467.997
 30
-657.449
 70
    32
  0
VERTEX
  8
T59SSILL
 62
3
 10
1382.861
 20
-8484.423
 30
-657.381
 70
    32
  0
VERTEX
  8
T59SSILL
 62
3
 10
1380.753
 20
-8481.265
 30
-657.378
 70
    32
  0
VERTEX
  8
T59SSILL
 62
3
 10
1373.954
 20
-8486.167
 30
-657.358
 70
    32
  0
VERTEX
  8
T59SSILL
 62
3
 10
1382.787
 20
-8494.631
 30
-657.373
 70
    32
  0
VERTEX
  8
T59SSILL
 62
3
 10
1532.494
 20
-8387.314
 30
-657.796
 70
    32
  0
VERTEX
  8
T59SSILL
 62
3
 10
1537.713
 20
-8389.452
 30
-657.790
 70
    32
  0
VERTEX
  8
T59SSILL
 62
3
 10
1511.753
 20
-8458.811
 30
-657.754
 70
    32
  0
VERTEX
  8
T59SSILL
 62
3
 10
1534.339
 20
-8497.747
 30
-657.793
 70
    32
  0
VERTEX
  8
T59SSILL
 62
3
 10
1518.462
 20
-8509.734
 30
-657.736
 70
    32
  0
VERTEX
  8
T59SSILL
 62
3
 10
1523.412
 20
-8516.517
 30
-657.742
 70
    32
  0
VERTEX
  8
T59SSILL
 62
3
 10
1539.012
 20
-8505.054
 30
-657.801
 70
    32
  0
VERTEX
  8
T59SSILL
 62
3
 10
1544.527
 20
-8514.908
 30
-657.811
 70
    32
  0
VERTEX
  8
T59SSILL
 62
3
 10
1542.716
 20
-8530.320
 30
-657.786
 70
    32
  0
VERTEX
  8
T59SSILL
 62
3
 10
1550.770
 20
-8623.288
 30
-657.670
 70
    32
  0
VERTEX
  8
T59SSILL
 62
3
 10
1564.533
 20
-8646.368
 30
-657.684
 70
    32
  0
VERTEX
  8
T59SSILL
 62
3
 10
1578.688
 20
-8662.544
 30
-657.705
 70
    32
  0
VERTEX
  8
T59SSILL
 62
3
 10
1582.652
 20
-8673.724
 30
-657.706
 70
    32
  0
VERTEX
  8
T59SSILL
 62
3
 10
1591.660
 20
-8684.668
 30
-657.719
 70
    32
  0
VERTEX
  8
T59SSILL
 62
3
 10
1594.104
 20
-8693.567
 30
-657.718
 70
    32
  0
VERTEX
  8
T59SSILL
 62
3
 10
1592.454
 20
-8717.876
 30
-657.696
 70
    32
  0
VERTEX
  8
T59SSILL
 62
3
 10
1586.711
 20
-8717.741
 30
-657.682
 70
    32
  0
VERTEX
  8
T59SSILL
 62
3
 10
1585.157
 20
-8726.670
 30
-657.672
 70
    32
  0
VERTEX
  8
T59SSILL
 62
3
 10
1589.493
 20
-8728.787
 30
-657.681
 70
    32
  0
VERTEX
  8
T59SSILL
 62
3
 10
1585.462
 20
-8741.548
 30
-657.661
 70
    32
  0
VERTEX
  8
T59SSILL
 62
3
 10
1594.462
 20
-8743.810
 30
-657.681
 70
    32
  0
VERTEX
  8
T59SSILL
 62
3
 10
1599.202
 20
-8730.978
 30
-657.702
 70
    32
  0
VERTEX
  8
T59SSILL
 62
3
 10
1611.285
 20
-8732.234
 30
-657.729
 70
    32
  0
VERTEX
  8
T59SSILL
 62
3
 10
1612.816
 20
-8731.033
 30
-657.734
 70
    32
  0
VERTEX
  8
T59SSILL
 62
3
 10
1615.428
 20
-8720.697
 30
-657.748
 70
    32
  0
VERTEX
  8
T59SSILL
 62
3
 10
1602.217
 20
-8712.536
 30
-657.723
 70
    32
  0
VERTEX
  8
T59SSILL
 62
3
 10
1603.824
 20
-8692.274
 30
-657.742
 70
    32
  0
VERTEX
  8
T59SSILL
 62
3
 10
1602.757
 20
-8685.760
 30
-657.744
 70
    32
  0
VERTEX
  8
T59SSILL
 62
3
 10
1609.643
 20
-8678.672
 30
-657.770
 70
    32
  0
VERTEX
  8
T59SSILL
 62
3
 10
1591.532
 20
-8662.279
 30
-657.736
 70
    32
  0
VERTEX
  8
T59SSILL
 62
3
 10
1594.441
 20
-8658.139
 30
-657.751
 70
    32
  0
VERTEX
  8
T59SSILL
 62
3
 10
1615.380
 20
-8658.720
 30
-657.824
 70
    32
  0
VERTEX
  8
T59SSILL
 62
3
 10
1756.583
 20
-8625.893
 30
-657.919
 70
    32
  0
VERTEX
  8
T59SSILL
 62
3
 10
1754.664
 20
-8618.032
 30
-657.911
 70
    32
  0
VERTEX
  8
T59SSILL
 62
3
 10
1676.726
 20
-8635.882
 30
-657.932
 70
    32
  0
VERTEX
  8
T59SSILL
 62
3
 10
1668.313
 20
-8626.685
 30
-657.923
 70
    32
  0
VERTEX
  8
T59SSILL
 62
3
 10
1647.557
 20
-8629.557
 30
-657.927
 70
    32
  0
VERTEX
  8
T59SSILL
 62
3
 10
1643.044
 20
-8641.793
 30
-657.939
 70
    32
  0
VERTEX
  8
T59SSILL
 62
3
 10
1627.302
 20
-8647.276
 30
-657.885
 70
    32
  0
VERTEX
  8
T59SSILL
 62
3
 10
1609.814
 20
-8648.793
 30
-657.821
 70
    32
  0
VERTEX
  8
T59SSILL
 62
3
 10
1588.546
 20
-8646.384
 30
-657.750
 70
    32
  0
VERTEX
  8
T59SSILL
 62
3
 10
1571.306
 20
-8638.818
 30
-657.706
 70
    32
  0
VERTEX
  8
T59SSILL
 62
3
 10
1558.538
 20
-8622.303
 30
-657.689
 70
    32
  0
VERTEX
  8
T59SSILL
 62
3
 10
1549.765
 20
-8526.047
 30
-657.818
 70
    32
  0
VERTEX
  8
T59SSILL
 62
3
 10
1551.987
 20
-8515.013
 30
-657.811
 70
    32
  0
VERTEX
  8
T59SSILL
 62
3
 10
1549.626
 20
-8506.382
 30
-657.802
 70
    32
  0
VERTEX
  8
T59SSILL
 62
3
 10
1520.692
 20
-8459.163
 30
-657.754
 70
    32
  0
VERTEX
  8
T59SSILL
 62
3
 10
1555.215
 20
-8369.246
 30
-657.834
 70
    32
  0
VERTEX
  8
T59SSILL
 62
3
 10
1627.962
 20
-8317.960
 30
-657.940
 70
    32
  0
VERTEX
  8
T59SSILL
 62
3
 10
1636.789
 20
-8314.048
 30
-657.948
 70
    32
  0
VERTEX
  8
T59SSILL
 62
3
 10
1640.475
 20
-8323.471
 30
-657.923
 70
    32
  0
VERTEX
  8
T59SSILL
 62
3
 10
1652.066
 20
-8319.322
 30
-657.930
 70
    32
  0
VERTEX
  8
T59SSILL
 62
3
 10
1649.581
 20
-8310.670
 30
-657.952
 70
    32
  0
VERTEX
  8
T59SSILL
 62
3
 10
1651.955
 20
-8308.215
 30
-657.958
 70
    32
  0
VERTEX
  8
T59SSILL
 62
3
 10
1677.530
 20
-8305.704
 30
-657.956
 70
    32
  0
VERTEX
  8
T59SSILL
 62
3
 10
1690.918
 20
-8307.114
 30
-657.949
 70
    32
  0
VERTEX
  8
T59SSILL
 62
3
 10
1711.692
 20
-8312.482
 30
-657.930
 70
    32
  0
VERTEX
  8
T59SSILL
 62
3
 10
1722.500
 20
-8317.581
 30
-657.914
 70
    32
  0
VERTEX
  8
T59SSILL
 62
3
 10
1742.502
 20
-8331.754
 30
-657.873
 70
    32
  0
VERTEX
  8
T59SSILL
 62
3
 10
1739.603
 20
-8337.734
 30
-657.859
 70
    32
  0
VERTEX
  8
T59SSILL
 62
3
 10
1711.272
 20
-8350.684
 30
-657.836
 70
    32
  0
VERTEX
  8
T59SSILL
 62
3
 10
1714.487
 20
-8356.860
 30
-657.819
 70
    32
  0
VERTEX
  8
T59SSILL
 62
3
 10
1727.434
 20
-8351.417
 30
-657.829
 70
    32
  0
VERTEX
  8
T59SSILL
 62
3
 10
1730.752
 20
-8356.976
 30
-657.814
 70
    32
  0
VERTEX
  8
T59SSILL
 62
3
 10
1750.820
 20
-8347.970
 30
-657.831
 70
    32
  0
VERTEX
  8
T59SSILL
 62
3
 10
1766.601
 20
-8355.166
 30
-657.809
 70
    32
  0
VERTEX
  8
T59SSILL
 62
3
 10
1825.309
 20
-8410.015
 30
-657.663
 70
    32
  0
VERTEX
  8
T59SSILL
 62
3
 10
1818.927
 20
-8415.223
 30
-657.675
 70
    32
  0
VERTEX
  8
T59SSILL
 62
3
 10
1822.984
 20
-8420.906
 30
-657.687
 70
    32
  0
VERTEX
  8
T59SSILL
 62
3
 10
1831.236
 20
-8415.123
 30
-657.674
 70
    32
  0
VERTEX
  8
T59SSILL
 62
3
 10
1920.412
 20
-8497.742
 30
-657.781
 70
    32
  0
VERTEX
  8
T59SSILL
 62
3
 10
1915.161
 20
-8503.772
 30
-657.788
 70
    32
  0
VERTEX
  8
T59SSILL
 62
3
 10
1920.359
 20
-8508.315
 30
-657.792
 70
    32
  0
VERTEX
  8
T59SSILL
 62
3
 10
1926.196
 20
-8502.953
 30
-657.786
 70
    32
  0
VERTEX
  8
T59SSILL
 62
3
 10
1940.259
 20
-8517.022
 30
-657.801
 70
    32
  0
VERTEX
  8
T59SSILL
 62
3
 10
1927.885
 20
-8530.417
 30
-657.815
 70
    32
  0
VERTEX
  8
T59SSILL
 62
3
 10
1932.949
 20
-8535.381
 30
-657.820
 70
    32
  0
VERTEX
  8
T59SSILL
 62
3
 10
1945.868
 20
-8522.140
 30
-657.806
 70
    32
  0
VERTEX
  8
T59SSILL
 62
3
 10
1955.544
 20
-8530.979
 30
-657.815
 70
    32
  0
VERTEX
  8
T59SSILL
 62
3
 10
1952.555
 20
-8534.991
 30
-657.819
 70
    32
  0
VERTEX
  8
T59SSILL
 62
3
 10
1954.581
 20
-8537.790
 30
-657.822
 70
    32
  0
VERTEX
  8
T59SSILL
 62
3
 10
1961.839
 20
-8536.798
 30
-657.820
 70
    32
  0
VERTEX
  8
T59SSILL
 62
3
 10
2000.428
 20
-8572.136
 30
-657.856
 70
    32
  0
VERTEX
  8
T59SSILL
 62
3
 10
3247.659
 20
-10332.123
 30
-659.886
 70
    32
  0
VERTEX
  8
T59SSILL
 62
3
 10
3261.135
 20
-10348.440
 30
-659.935
 70
    32
  0
VERTEX
  8
T59SSILL
 62
3
 10
3273.388
 20
-10358.691
 30
-659.974
 70
    32
  0
VERTEX
  8
T59SSILL
 62
3
 10
3292.540
 20
-10364.632
 30
-660.025
 70
    32
  0
VERTEX
  8
T59SSILL
 62
3
 10
3306.094
 20
-10365.496
 30
-660.057
 70
    32
  0
VERTEX
  8
T59SSILL
 62
3
 10
3173.403
 20
-10462.720
 30
-659.863
 70
    32
  0
VERTEX
  8
T59SSILL
 62
3
 10
3177.327
 20
-10468.045
 30
-659.878
 70
    32
  0
VERTEX
  8
T59SSILL
 62
3
 10
3462.359
 20
-10260.218
 30
-660.295
 70
    32
  0
VERTEX
  8
T59SSILL
 62
3
 10
3831.176
 20
-9994.347
 30
-660.838
 70
    32
  0
VERTEX
  8
T59SSILL
 62
3
 10
3829.880
 20
-10002.286
 30
-660.844
 70
    32
  0
VERTEX
  8
T59SSILL
 62
3
 10
3830.883
 20
-10009.549
 30
-660.854
 70
    32
  0
VERTEX
  8
T59SSILL
 62
3
 10
3836.540
 20
-10021.128
 30
-660.880
 70
    32
  0
VERTEX
  8
T59SSILL
 62
3
 10
4083.913
 20
-10364.370
 30
-661.126
 70
    32
  0
VERTEX
  8
T59SSILL
 62
3
 10
4108.931
 20
-10401.104
 30
-661.131
 70
    32
  0
VERTEX
  8
T59SSILL
 62
3
 10
4097.510
 20
-10409.479
 30
-661.139
 70
    32
  0
VERTEX
  8
T59SSILL
 62
3
 10
4095.696
 20
-10407.780
 30
-661.139
 70
    32
  0
VERTEX
  8
T59SSILL
 62
3
 10
4089.937
 20
-10411.837
 30
-661.138
 70
    32
  0
VERTEX
  8
T59SSILL
 62
3
 10
4095.742
 20
-10420.476
 30
-661.139
 70
    32
  0
VERTEX
  8
T59SSILL
 62
3
 10
4113.580
 20
-10407.741
 30
-661.132
 70
    32
  0
VERTEX
  8
T59SSILL
 62
3
 10
4401.340
 20
-10806.824
 30
-661.176
 70
    32
  0
VERTEX
  8
T59SSILL
 62
3
 10
4387.423
 20
-10816.863
 30
-661.190
 70
    32
  0
VERTEX
  8
T59SSILL
 62
3
 10
4385.167
 20
-10813.490
 30
-661.190
 70
    32
  0
VERTEX
  8
T59SSILL
 62
3
 10
4379.779
 20
-10817.025
 30
-661.195
 70
    32
  0
VERTEX
  8
T59SSILL
 62
3
 10
4387.258
 20
-10826.347
 30
-661.196
 70
    32
  0
VERTEX
  8
T59SSILL
 62
3
 10
4405.384
 20
-10813.269
 30
-661.177
 70
    32
  0
VERTEX
  8
T59SSILL
 62
3
 10
4412.208
 20
-10822.596
 30
-661.178
 70
    32
  0
VERTEX
  8
T59SSILL
 62
3
 10
4418.771
 20
-10818.344
 30
-661.172
 70
    32
  0
VERTEX
  8
T59SSILL
 62
3
 10
4090.756
 20
-10360.320
 30
-661.120
 70
    32
  0
VERTEX
  8
T59SSILL
 62
3
 10
3843.024
 20
-10018.949
 30
-660.893
 70
    32
  0
VERTEX
  8
T59SSILL
 62
3
 10
3838.271
 20
-10007.300
 30
-660.869
 70
    32
  0
VERTEX
  8
T59SSILL
 62
3
 10
3837.584
 20
-10000.674
 30
-660.860
 70
    32
  0
VERTEX
  8
T59SSILL
 62
3
 10
3838.998
 20
-9994.348
 30
-660.856
 70
    32
  0
VERTEX
  8
T59SSILL
 62
3
 10
3843.741
 20
-9986.346
 30
-660.856
 70
    32
  0
VERTEX
  8
T59SSILL
 62
3
 10
3882.109
 20
-9957.978
 30
-660.922
 70
    32
  0
VERTEX
  8
T59SSILL
 62
3
 10
4271.069
 20
-9677.942
 30
-661.676
 70
    32
  0
VERTEX
  8
T59SSILL
 62
3
 10
4278.580
 20
-9675.315
 30
-661.686
 70
    32
  0
VERTEX
  8
T59SSILL
 62
3
 10
4283.130
 20
-9676.776
 30
-661.691
 70
    32
  0
VERTEX
  8
T59SSILL
 62
3
 10
4280.839
 20
-9684.153
 30
-661.685
 70
    32
  0
VERTEX
  8
T59SSILL
 62
3
 10
4279.033
 20
-9701.061
 30
-661.676
 70
    32
  0
VERTEX
  8
T59SSILL
 62
3
 10
4284.431
 20
-9702.042
 30
-661.682
 70
    32
  0
VERTEX
  8
T59SSILL
 62
3
 10
4289.460
 20
-9686.227
 30
-661.695
 70
    32
  0
VERTEX
  8
T59SSILL
 62
3
 10
4291.378
 20
-9686.829
 30
-661.697
 70
    32
  0
VERTEX
  8
T59SSILL
 62
3
 10
4297.734
 20
-9658.836
 30
-661.716
 70
    32
  0
VERTEX
  8
T59SSILL
 62
3
 10
4365.615
 20
-9609.454
 30
-661.819
 70
    32
  0
VERTEX
  8
T59SSILL
 62
3
 10
4369.966
 20
-9612.458
 30
-661.823
 70
    32
  0
VERTEX
  8
T59SSILL
 62
3
 10
4379.203
 20
-9609.966
 30
-661.835
 70
    32
  0
VERTEX
  8
T59SSILL
 62
3
 10
4390.496
 20
-9602.117
 30
-661.852
 70
    32
  0
VERTEX
  8
T59SSILL
 62
3
 10
4395.049
 20
-9593.841
 30
-661.861
 70
    32
  0
VERTEX
  8
T59SSILL
 62
3
 10
4396.486
 20
-9587.079
 30
-661.865
 70
    32
  0
VERTEX
  8
T59SSILL
 62
3
 10
4762.093
 20
-9321.661
 30
-662.131
 70
    32
  0
VERTEX
  8
T59SSILL
 62
3
 10
4956.846
 20
-9182.492
 30
-661.809
 70
    32
  0
VERTEX
  8
T59SSILL
 62
3
 10
4953.389
 20
-9195.309
 30
-661.863
 70
    32
  0
VERTEX
  8
T59SSILL
 62
3
 10
4952.624
 20
-9207.671
 30
-661.921
 70
    32
  0
VERTEX
  8
T59SSILL
 62
3
 10
4954.006
 20
-9218.121
 30
-661.973
 70
    32
  0
VERTEX
  8
T59SSILL
 62
3
 10
4958.183
 20
-9227.411
 30
-662.024
 70
    32
  0
VERTEX
  8
T59SSILL
 62
3
 10
5049.713
 20
-9356.761
 30
-662.705
 70
    32
  0
VERTEX
  8
T59SSILL
 62
3
 10
5044.835
 20
-9364.372
 30
-662.682
 70
    32
  0
VERTEX
  8
T59SSILL
 62
3
 10
5050.243
 20
-9371.711
 30
-662.639
 70
    32
  0
VERTEX
  8
T59SSILL
 62
3
 10
5059.470
 20
-9370.099
 30
-662.626
 70
    32
  0
VERTEX
  8
T59SSILL
 62
3
 10
5096.727
 20
-9422.149
 30
-662.320
 70
    32
  0
VERTEX
  8
T59SSILL
 62
3
 10
5094.951
 20
-9423.927
 30
-662.316
 70
    32
  0
VERTEX
  8
T59SSILL
 62
3
 10
5096.842
 20
-9428.401
 30
-662.292
 70
    32
  0
VERTEX
  8
T59SSILL
 62
3
 10
5093.106
 20
-9436.768
 30
-662.264
 70
    32
  0
VERTEX
  8
T59SSILL
 62
3
 10
5092.940
 20
-9442.129
 30
-662.241
 70
    32
  0
VERTEX
  8
T59SSILL
 62
3
 10
5102.821
 20
-9450.265
 30
-662.184
 70
    32
  0
VERTEX
  8
T59SSILL
 62
3
 10
5108.960
 20
-9448.350
 30
-662.179
 70
    32
  0
VERTEX
  8
T59SSILL
 62
3
 10
5115.849
 20
-9448.365
 30
-662.164
 70
    32
  0
VERTEX
  8
T59SSILL
 62
3
 10
5121.235
 20
-9456.247
 30
-662.118
 70
    32
  0
VERTEX
  8
T59SSILL
 62
3
 10
5111.368
 20
-9467.685
 30
-662.090
 70
    32
  0
VERTEX
  8
T59SSILL
 62
3
 10
5120.556
 20
-9475.524
 30
-662.036
 70
    32
  0
VERTEX
  8
T59SSILL
 62
3
 10
5121.727
 20
-9479.234
 30
-662.017
 70
    32
  0
VERTEX
  8
T59SSILL
 62
3
 10
5127.511
 20
-9481.758
 30
-661.994
 70
    32
  0
VERTEX
  8
T59SSILL
 62
3
 10
5134.048
 20
-9474.222
 30
-662.013
 70
    32
  0
VERTEX
  8
T59SSILL
 62
3
 10
5203.903
 20
-9572.498
 30
-661.435
 70
    32
  0
VERTEX
  8
T59SSILL
 62
3
 10
5246.093
 20
-9628.738
 30
-661.099
 70
    32
  0
VERTEX
  8
T59SSILL
 62
3
 10
5259.636
 20
-9638.234
 30
-661.029
 70
    32
  0
VERTEX
  8
T59SSILL
 62
3
 10
5277.607
 20
-9642.590
 30
-660.971
 70
    32
  0
VERTEX
  8
T59SSILL
 62
3
 10
5285.159
 20
-9642.468
 30
-660.956
 70
    32
  0
VERTEX
  8
T59SSILL
 62
3
 10
5285.946
 20
-9644.258
 30
-660.946
 70
    32
  0
VERTEX
  8
T59SSILL
 62
3
 10
5274.225
 20
-9653.260
 30
-660.932
 70
    32
  0
VERTEX
  8
T59SSILL
 62
3
 10
5258.667
 20
-9659.119
 30
-660.940
 70
    32
  0
VERTEX
  8
T59SSILL
 62
3
 10
5249.728
 20
-9660.437
 30
-660.953
 70
    32
  0
VERTEX
  8
T59SSILL
 62
3
 10
5231.326
 20
-9658.567
 30
-661.001
 70
    32
  0
VERTEX
  8
T59SSILL
 62
3
 10
5117.654
 20
-9590.040
 30
-661.543
 70
    32
  0
VERTEX
  8
T59SSILL
 62
3
 10
5116.451
 20
-9585.548
 30
-661.566
 70
    32
  0
VERTEX
  8
T59SSILL
 62
3
 10
5120.255
 20
-9579.082
 30
-661.586
 70
    32
  0
VERTEX
  8
T59SSILL
 62
3
 10
5124.044
 20
-9576.536
 30
-661.589
 70
    32
  0
VERTEX
  8
T59SSILL
 62
3
 10
5129.739
 20
-9579.391
 30
-661.564
 70
    32
  0
VERTEX
  8
T59SSILL
 62
3
 10
5135.302
 20
-9573.364
 30
-661.578
 70
    32
  0
VERTEX
  8
T59SSILL
 62
3
 10
5129.884
 20
-9567.706
 30
-661.614
 70
    32
  0
VERTEX
  8
T59SSILL
 62
3
 10
5129.590
 20
-9557.782
 30
-661.658
 70
    32
  0
VERTEX
  8
T59SSILL
 62
3
 10
5133.944
 20
-9552.566
 30
-661.672
 70
    32
  0
VERTEX
  8
T59SSILL
 62
3
 10
5147.028
 20
-9549.111
 30
-661.659
 70
    32
  0
VERTEX
  8
T59SSILL
 62
3
 10
5150.403
 20
-9537.015
 30
-661.704
 70
    32
  0
VERTEX
  8
T59SSILL
 62
3
 10
5156.650
 20
-9531.950
 30
-661.713
 70
    32
  0
VERTEX
  8
T59SSILL
 62
3
 10
5152.254
 20
-9525.422
 30
-661.751
 70
    32
  0
VERTEX
  8
T59SSILL
 62
3
 10
5143.474
 20
-9521.621
 30
-661.786
 70
    32
  0
VERTEX
  8
T59SSILL
 62
3
 10
5128.595
 20
-9527.847
 30
-661.791
 70
    32
  0
VERTEX
  8
T59SSILL
 62
3
 10
5121.614
 20
-9544.242
 30
-661.734
 70
    32
  0
VERTEX
  8
T59SSILL
 62
3
 10
5115.473
 20
-9543.682
 30
-661.750
 70
    32
  0
VERTEX
  8
T59SSILL
 62
3
 10
5111.517
 20
-9540.557
 30
-661.772
 70
    32
  0
VERTEX
  8
T59SSILL
 62
3
 10
5109.941
 20
-9532.700
 30
-661.810
 70
    32
  0
VERTEX
  8
T59SSILL
 62
3
 10
5103.231
 20
-9526.175
 30
-661.853
 70
    32
  0
VERTEX
  8
T59SSILL
 62
3
 10
5098.746
 20
-9527.672
 30
-661.856
 70
    32
  0
VERTEX
  8
T59SSILL
 62
3
 10
5108.146
 20
-9550.961
 30
-661.734
 70
    32
  0
VERTEX
  8
T59SSILL
 62
3
 10
5110.480
 20
-9560.836
 30
-661.686
 70
    32
  0
VERTEX
  8
T59SSILL
 62
3
 10
5089.188
 20
-9572.599
 30
-661.680
 70
    32
  0
VERTEX
  8
T59SSILL
 62
3
 10
5002.232
 20
-9519.319
 30
-662.099
 70
    32
  0
VERTEX
  8
T59SSILL
 62
3
 10
5001.817
 20
-9513.427
 30
-662.126
 70
    32
  0
VERTEX
  8
T59SSILL
 62
3
 10
4994.841
 20
-9508.634
 30
-662.161
 70
    32
  0
VERTEX
  8
T59SSILL
 62
3
 10
4989.540
 20
-9511.543
 30
-662.160
 70
    32
  0
VERTEX
  8
T59SSILL
 62
3
 10
4933.240
 20
-9477.047
 30
-662.431
 70
    32
  0
VERTEX
  8
T59SSILL
 62
3
 10
4927.083
 20
-9483.977
 30
-662.414
 70
    32
  0
VERTEX
  8
T59SSILL
 62
3
 10
4987.858
 20
-9520.972
 30
-662.123
 70
    32
  0
VERTEX
  8
T59SSILL
 62
3
 10
4987.099
 20
-9525.860
 30
-662.103
 70
    32
  0
VERTEX
  8
T59SSILL
 62
3
 10
4991.254
 20
-9542.307
 30
-662.023
 70
    32
  0
VERTEX
  8
T59SSILL
 62
3
 10
5000.016
 20
-9547.713
 30
-661.980
 70
    32
  0
VERTEX
  8
T59SSILL
 62
3
 10
5006.666
 20
-9544.099
 30
-661.982
 70
    32
  0
VERTEX
  8
T59SSILL
 62
3
 10
5016.352
 20
-9545.712
 30
-661.954
 70
    32
  0
VERTEX
  8
T59SSILL
 62
3
 10
5030.938
 20
-9551.679
 30
-661.897
 70
    32
  0
VERTEX
  8
T59SSILL
 62
3
 10
5033.377
 20
-9555.927
 30
-661.873
 70
    32
  0
VERTEX
  8
T59SSILL
 62
3
 10
5041.634
 20
-9559.435
 30
-661.840
 70
    32
  0
VERTEX
  8
T59SSILL
 62
3
 10
5045.112
 20
-9558.050
 30
-661.838
 70
    32
  0
VERTEX
  8
T59SSILL
 62
3
 10
5050.311
 20
-9558.602
 30
-661.825
 70
    32
  0
VERTEX
  8
T59SSILL
 62
3
 10
5057.821
 20
-9563.400
 30
-661.788
 70
    32
  0
VERTEX
  8
T59SSILL
 62
3
 10
5065.411
 20
-9572.727
 30
-661.731
 70
    32
  0
VERTEX
  8
T59SSILL
 62
3
 10
5065.977
 20
-9580.384
 30
-661.696
 70
    32
  0
VERTEX
  8
T59SSILL
 62
3
 10
5076.932
 20
-9580.998
 30
-661.670
 70
    32
  0
VERTEX
  8
T59SSILL
 62
3
 10
5077.944
 20
-9577.191
 30
-661.685
 70
    32
  0
VERTEX
  8
T59SSILL
 62
3
 10
5080.436
 20
-9577.327
 30
-661.679
 70
    32
  0
VERTEX
  8
T59SSILL
 62
3
 10
5224.043
 20
-9663.543
 30
-660.995
 70
    32
  0
VERTEX
  8
T59SSILL
 62
3
 10
5234.528
 20
-9667.327
 30
-660.956
 70
    32
  0
VERTEX
  8
T59SSILL
 62
3
 10
5244.644
 20
-9668.612
 30
-660.929
 70
    32
  0
VERTEX
  8
T59SSILL
 62
3
 10
5263.817
 20
-9666.183
 30
-660.898
 70
    32
  0
VERTEX
  8
T59SSILL
 62
3
 10
5279.315
 20
-9658.782
 30
-660.897
 70
    32
  0
VERTEX
  8
T59SSILL
 62
3
 10
5298.166
 20
-9645.643
 30
-660.914
 70
    32
  0
VERTEX
  8
T59SSILL
 62
3
 10
5304.478
 20
-9642.928
 30
-660.912
 70
    32
  0
VERTEX
  8
T59SSILL
 62
3
 10
5310.422
 20
-9635.037
 30
-660.934
 70
    32
  0
VERTEX
  8
T59SSILL
 62
3
 10
5380.965
 20
-9584.128
 30
-660.776
 70
    32
  0
VERTEX
  8
T59SSILL
 62
3
 10
5392.758
 20
-9601.187
 30
-660.692
 70
    32
  0
VERTEX
  8
T59SSILL
 62
3
 10
5393.288
 20
-9604.179
 30
-660.701
 70
    32
  0
VERTEX
  8
T59SSILL
 62
3
 10
5385.413
 20
-9648.093
 30
-660.716
 70
    32
  0
VERTEX
  8
T59SSILL
 62
3
 10
5388.293
 20
-9652.979
 30
-660.689
 70
    32
  0
VERTEX
  8
T59SSILL
 62
3
 10
5394.801
 20
-9657.310
 30
-660.656
 70
    32
  0
VERTEX
  8
T59SSILL
 62
3
 10
5397.543
 20
-9657.940
 30
-660.647
 70
    32
  0
VERTEX
  8
T59SSILL
 62
3
 10
5403.399
 20
-9656.100
 30
-660.643
 70
    32
  0
VERTEX
  8
T59SSILL
 62
3
 10
5400.474
 20
-9668.015
 30
-660.597
 70
    32
  0
VERTEX
  8
T59SSILL
 62
3
 10
5405.072
 20
-9680.696
 30
-660.532
 70
    32
  0
VERTEX
  8
T59SSILL
 62
3
 10
5398.174
 20
-9718.132
 30
-660.384
 70
    32
  0
VERTEX
  8
T59SSILL
 62
3
 10
5404.042
 20
-9728.806
 30
-660.325
 70
    32
  0
VERTEX
  8
T59SSILL
 62
3
 10
5403.298
 20
-9757.436
 30
-660.202
 70
    32
  0
VERTEX
  8
T59SSILL
 62
3
 10
5407.722
 20
-9764.908
 30
-660.159
 70
    32
  0
VERTEX
  8
T59SSILL
 62
3
 10
5413.467
 20
-9763.366
 30
-660.154
 70
    32
  0
VERTEX
  8
T59SSILL
 62
3
 10
5415.982
 20
-9756.756
 30
-660.177
 70
    32
  0
VERTEX
  8
T59SSILL
 62
3
 10
5416.322
 20
-9748.344
 30
-660.213
 70
    32
  0
VERTEX
  8
T59SSILL
 62
3
 10
5412.717
 20
-9740.498
 30
-660.255
 70
    32
  0
VERTEX
  8
T59SSILL
 62
3
 10
5412.687
 20
-9737.145
 30
-660.270
 70
    32
  0
VERTEX
  8
T59SSILL
 62
3
 10
5418.254
 20
-9719.399
 30
-660.335
 70
    32
  0
VERTEX
  8
T59SSILL
 62
3
 10
5417.763
 20
-9716.160
 30
-660.350
 70
    32
  0
VERTEX
  8
T59SSILL
 62
3
 10
5420.914
 20
-9709.526
 30
-660.372
 70
    32
  0
VERTEX
  8
T59SSILL
 62
3
 10
5424.632
 20
-9706.838
 30
-660.376
 70
    32
  0
VERTEX
  8
T59SSILL
 62
3
 10
5424.482
 20
-9697.146
 30
-660.419
 70
    32
  0
VERTEX
  8
T59SSILL
 62
3
 10
5434.143
 20
-9710.956
 30
-660.338
 70
    32
  0
VERTEX
  8
T59SSILL
 62
3
 10
5427.117
 20
-9716.146
 30
-660.330
 70
    32
  0
VERTEX
  8
T59SSILL
 62
3
 10
5432.085
 20
-9723.769
 30
-660.286
 70
    32
  0
VERTEX
  8
T59SSILL
 62
3
 10
5439.703
 20
-9718.042
 30
-660.295
 70
    32
  0
VERTEX
  8
T59SSILL
 62
3
 10
5452.287
 20
-9735.291
 30
-660.193
 70
    32
  0
VERTEX
  8
T59SSILL
 62
3
 10
5457.784
 20
-9731.751
 30
-660.196
 70
    32
  0
VERTEX
  8
T59SSILL
 62
3
 10
5445.351
 20
-9713.957
 30
-660.301
 70
    32
  0
VERTEX
  8
T59SSILL
 62
3
 10
5456.750
 20
-9705.931
 30
-660.311
 70
    32
  0
VERTEX
  8
T59SSILL
 62
3
 10
5451.897
 20
-9698.769
 30
-660.353
 70
    32
  0
VERTEX
  8
T59SSILL
 62
3
 10
5446.035
 20
-9703.009
 30
-660.347
 70
    32
  0
VERTEX
  8
T59SSILL
 62
3
 10
5437.556
 20
-9703.479
 30
-660.363
 70
    32
  0
VERTEX
  8
T59SSILL
 62
3
 10
5429.601
 20
-9692.029
 30
-660.430
 70
    32
  0
VERTEX
  8
T59SSILL
 62
3
 10
5427.554
 20
-9685.887
 30
-660.461
 70
    32
  0
VERTEX
  8
T59SSILL
 62
3
 10
5431.513
 20
-9675.402
 30
-660.498
 70
    32
  0
VERTEX
  8
T59SSILL
 62
3
 10
5448.089
 20
-9659.929
 30
-660.445
 70
    32
  0
VERTEX
  8
T59SSILL
 62
3
 10
5449.320
 20
-9658.168
 30
-660.425
 70
    32
  0
VERTEX
  8
T59SSILL
 62
3
 10
5448.022
 20
-9653.663
 30
-660.417
 70
    32
  0
VERTEX
  8
T59SSILL
 62
3
 10
5463.833
 20
-9642.554
 30
-660.289
 70
    32
  0
VERTEX
  8
T59SSILL
 62
3
 10
5469.411
 20
-9640.480
 30
-660.312
 70
    32
  0
VERTEX
  8
T59SSILL
 62
3
 10
5479.519
 20
-9639.703
 30
-660.327
 70
    32
  0
VERTEX
  8
T59SSILL
 62
3
 10
5491.308
 20
-9643.808
 30
-660.296
 70
    32
  0
VERTEX
  8
T59SSILL
 62
3
 10
5496.334
 20
-9649.102
 30
-660.251
 70
    32
  0
VERTEX
  8
T59SSILL
 62
3
 10
5530.659
 20
-9716.285
 30
-659.933
 70
    32
  0
VERTEX
  8
T59SSILL
 62
3
 10
5521.129
 20
-9721.326
 30
-660.045
 70
    32
  0
VERTEX
  8
T59SSILL
 62
3
 10
5529.724
 20
-9733.512
 30
-660.020
 70
    32
  0
VERTEX
  8
T59SSILL
 62
3
 10
5536.767
 20
-9729.399
 30
-659.936
 70
    32
  0
VERTEX
  8
T59SSILL
 62
3
 10
5556.413
 20
-9766.802
 30
-659.917
 70
    32
  0
VERTEX
  8
T59SSILL
 62
3
 10
5562.586
 20
-9782.263
 30
-659.981
 70
    32
  0
VERTEX
  8
T59SSILL
 62
3
 10
5564.650
 20
-9796.559
 30
-660.033
 70
    32
  0
VERTEX
  8
T59SSILL
 62
3
 10
5563.819
 20
-9808.810
 30
-660.073
 70
    32
  0
VERTEX
  8
T59SSILL
 62
3
 10
5566.121
 20
-9816.510
 30
-660.103
 70
    32
  0
VERTEX
  8
T59SSILL
 62
3
 10
5571.552
 20
-9820.857
 30
-660.129
 70
    32
  0
VERTEX
  8
T59SSILL
 62
3
 10
5571.546
 20
-9830.334
 30
-660.161
 70
    32
  0
VERTEX
  8
T59SSILL
 62
3
 10
5568.681
 20
-9836.762
 30
-660.176
 70
    32
  0
VERTEX
  8
T59SSILL
 62
3
 10
5568.507
 20
-9843.747
 30
-660.199
 70
    32
  0
VERTEX
  8
T59SSILL
 62
3
 10
5572.756
 20
-9846.010
 30
-660.215
 70
    32
  0
VERTEX
  8
T59SSILL
 62
3
 10
5578.258
 20
-9843.228
 30
-660.218
 70
    32
  0
VERTEX
  8
T59SSILL
 62
3
 10
5579.279
 20
-9817.991
 30
-660.135
 70
    32
  0
VERTEX
  8
T59SSILL
 62
3
 10
5581.705
 20
-9815.474
 30
-660.132
 70
    32
  0
VERTEX
  8
T59SSILL
 62
3
 10
5586.656
 20
-9814.942
 30
-660.141
 70
    32
  0
VERTEX
  8
T59SSILL
 62
3
 10
5669.215
 20
-9928.797
 30
-660.693
 70
    32
  0
VERTEX
  8
T59SSILL
 62
3
 10
5677.373
 20
-9934.657
 30
-660.730
 70
    32
  0
VERTEX
  8
T59SSILL
 62
3
 10
5685.183
 20
-9937.175
 30
-660.754
 70
    32
  0
VERTEX
  8
T59SSILL
 62
3
 10
5700.103
 20
-9936.728
 30
-660.784
 70
    32
  0
VERTEX
  8
T59SSILL
 62
3
 10
5709.879
 20
-9933.972
 30
-660.795
 70
    32
  0
VERTEX
  8
T59SSILL
 62
3
 10
5860.770
 20
-9826.636
 30
-661.409
 70
    32
  0
VERTEX
  8
T59SSILL
 62
3
 10
5865.085
 20
-9831.224
 30
-661.415
 70
    32
  0
VERTEX
  8
T59SSILL
 62
3
 10
5877.076
 20
-9821.820
 30
-661.529
 70
    32
  0
VERTEX
  8
T59SSILL
 62
3
 10
5873.857
 20
-9815.895
 30
-661.536
 70
    32
  0
VERTEX
  8
T59SSILL
 62
3
 10
5884.007
 20
-9804.216
 30
-661.649
 70
    32
  0
VERTEX
  8
T59SSILL
 62
3
 10
5887.768
 20
-9796.810
 30
-661.704
 70
    32
  0
VERTEX
  8
T59SSILL
 62
3
 10
5890.478
 20
-9777.672
 30
-661.805
 70
    32
  0
VERTEX
  8
T59SSILL
 62
3
 10
5892.803
 20
-9776.883
 30
-661.823
 70
    32
  0
VERTEX
  8
T59SSILL
 62
3
 10
5937.591
 20
-9840.508
 30
-661.812
 70
    32
  0
VERTEX
  8
T59SSILL
 62
3
 10
5943.089
 20
-9854.947
 30
-661.781
 70
    32
  0
VERTEX
  8
T59SSILL
 62
3
 10
5941.453
 20
-9868.545
 30
-661.711
 70
    32
  0
VERTEX
  8
T59SSILL
 62
3
 10
5937.907
 20
-9874.269
 30
-661.664
 70
    32
  0
VERTEX
  8
T59SSILL
 62
3
 10
5917.041
 20
-9893.919
 30
-661.451
 70
    32
  0
VERTEX
  8
T59SSILL
 62
3
 10
5914.810
 20
-9893.049
 30
-661.441
 70
    32
  0
VERTEX
  8
T59SSILL
 62
3
 10
5911.205
 20
-9895.481
 30
-661.409
 70
    32
  0
VERTEX
  8
T59SSILL
 62
3
 10
5910.847
 20
-9898.028
 30
-661.395
 70
    32
  0
VERTEX
  8
T59SSILL
 62
3
 10
5884.030
 20
-9917.631
 30
-661.147
 70
    32
  0
VERTEX
  8
T59SSILL
 62
3
 10
5877.860
 20
-9910.841
 30
-661.139
 70
    32
  0
VERTEX
  8
T59SSILL
 62
3
 10
5874.522
 20
-9903.869
 30
-661.150
 70
    32
  0
VERTEX
  8
T59SSILL
 62
3
 10
5887.799
 20
-9882.765
 30
-661.324
 70
    32
  0
VERTEX
  8
T59SSILL
 62
3
 10
5887.616
 20
-9869.070
 30
-661.383
 70
    32
  0
VERTEX
  8
T59SSILL
 62
3
 10
5882.081
 20
-9857.011
 30
-661.403
 70
    32
  0
VERTEX
  8
T59SSILL
 62
3
 10
5868.383
 20
-9846.965
 30
-661.365
 70
    32
  0
VERTEX
  8
T59SSILL
 62
3
 10
5843.696
 20
-9848.710
 30
-661.208
 70
    32
  0
VERTEX
  8
T59SSILL
 62
3
 10
5833.041
 20
-9856.693
 30
-661.109
 70
    32
  0
VERTEX
  8
T59SSILL
 62
3
 10
5832.544
 20
-9858.814
 30
-661.096
 70
    32
  0
VERTEX
  8
T59SSILL
 62
3
 10
5841.460
 20
-9873.598
 30
-661.085
 70
    32
  0
VERTEX
  8
T59SSILL
 62
3
 10
5843.826
 20
-9895.871
 30
-661.000
 70
    32
  0
VERTEX
  8
T59SSILL
 62
3
 10
5853.592
 20
-9911.782
 30
-661.021
 70
    32
  0
VERTEX
  8
T59SSILL
 62
3
 10
5858.188
 20
-9915.708
 30
-661.044
 70
    32
  0
VERTEX
  8
T59SSILL
 62
3
 10
5869.783
 20
-9915.541
 30
-661.070
 70
    32
  0
VERTEX
  8
T59SSILL
 62
3
 10
5877.540
 20
-9922.337
 30
-661.106
 70
    32
  0
VERTEX
  8
T59SSILL
 62
3
 10
5862.478
 20
-9933.230
 30
-661.111
 70
    32
  0
VERTEX
  8
T59SSILL
 62
3
 10
5855.662
 20
-9928.976
 30
-661.083
 70
    32
  0
VERTEX
  8
T59SSILL
 62
3
 10
5843.801
 20
-9933.854
 30
-661.074
 70
    32
  0
VERTEX
  8
T59SSILL
 62
3
 10
5842.628
 20
-9939.443
 30
-661.091
 70
    32
  0
VERTEX
  8
T59SSILL
 62
3
 10
5846.315
 20
-9944.850
 30
-661.116
 70
    32
  0
VERTEX
  8
T59SSILL
 62
3
 10
5788.874
 20
-9985.996
 30
-661.134
 70
    32
  0
VERTEX
  8
T59SSILL
 62
3
 10
5793.379
 20
-9991.505
 30
-661.162
 70
    32
  0
VERTEX
  8
T59SSILL
 62
3
 10
5845.808
 20
-9954.465
 30
-661.147
 70
    32
  0
VERTEX
  8
T59SSILL
 62
3
 10
5845.803
 20
-9961.007
 30
-661.169
 70
    32
  0
VERTEX
  8
T59SSILL
 62
3
 10
5855.963
 20
-9976.236
 30
-661.241
 70
    32
  0
VERTEX
  8
T59SSILL
 62
3
 10
5860.153
 20
-9978.110
 30
-661.256
 70
    32
  0
VERTEX
  8
T59SSILL
 62
3
 10
5854.616
 20
-9988.094
 30
-661.278
 70
    32
  0
VERTEX
  8
T59SSILL
 62
3
 10
5860.850
 20
-9996.739
 30
-661.320
 70
    32
  0
VERTEX
  8
T59SSILL
 62
3
 10
5868.998
 20
-10003.488
 30
-661.359
 70
    32
  0
VERTEX
  8
T59SSILL
 62
3
 10
5879.191
 20
-10021.964
 30
-661.442
 70
    32
  0
VERTEX
  8
T59SSILL
 62
3
 10
5885.493
 20
-10026.557
 30
-661.471
 70
    32
  0
VERTEX
  8
T59SSILL
 62
3
 10
5894.611
 20
-10029.185
 30
-661.499
 70
    32
  0
VERTEX
  8
T59SSILL
 62
3
 10
5895.823
 20
-10031.022
 30
-661.507
 70
    32
  0
VERTEX
  8
T59SSILL
 62
3
 10
5906.386
 20
-10048.938
 30
-661.589
 70
    32
  0
VERTEX
  8
T59SSILL
 62
3
 10
5927.605
 20
-10096.414
 30
-661.786
 70
    32
  0
VERTEX
  8
T59SSILL
 62
3
 10
5975.778
 20
-10194.470
 30
-661.767
 70
    32
  0
VERTEX
  8
T59SSILL
 62
3
 10
5981.873
 20
-10191.553
 30
-661.769
 70
    32
  0
VERTEX
  8
T59SSILL
 62
3
 10
5903.856
 20
-10025.297
 30
-661.505
 70
    32
  0
VERTEX
  8
T59SSILL
 62
3
 10
5906.360
 20
-10022.061
 30
-661.499
 70
    32
  0
VERTEX
  8
T59SSILL
 62
3
 10
5917.419
 20
-10016.448
 30
-661.504
 70
    32
  0
VERTEX
  8
T59SSILL
 62
3
 10
5914.212
 20
-10007.597
 30
-661.468
 70
    32
  0
VERTEX
  8
T59SSILL
 62
3
 10
5917.931
 20
-10000.290
 30
-661.451
 70
    32
  0
VERTEX
  8
T59SSILL
 62
3
 10
5902.827
 20
-9971.662
 30
-661.324
 70
    32
  0
VERTEX
  8
T59SSILL
 62
3
 10
5901.995
 20
-9966.728
 30
-661.306
 70
    32
  0
VERTEX
  8
T59SSILL
 62
3
 10
5896.322
 20
-9963.407
 30
-661.283
 70
    32
  0
VERTEX
  8
T59SSILL
 62
3
 10
5892.091
 20
-9954.283
 30
-661.243
 70
    32
  0
VERTEX
  8
T59SSILL
 62
3
 10
5879.305
 20
-9947.854
 30
-661.195
 70
    32
  0
VERTEX
  8
T59SSILL
 62
3
 10
5876.777
 20
-9940.031
 30
-661.164
 70
    32
  0
VERTEX
  8
T59SSILL
 62
3
 10
5877.988
 20
-9931.322
 30
-661.137
 70
    32
  0
VERTEX
  8
T59SSILL
 62
3
 10
5896.062
 20
-9918.124
 30
-661.217
 70
    32
  0
VERTEX
  8
T59SSILL
 62
3
 10
5899.530
 20
-9923.217
 30
-661.216
 70
    32
  0
VERTEX
  8
T59SSILL
 62
3
 10
5905.848
 20
-9918.730
 30
-661.274
 70
    32
  0
VERTEX
  8
T59SSILL
 62
3
 10
5902.356
 20
-9913.441
 30
-661.276
 70
    32
  0
VERTEX
  8
T59SSILL
 62
3
 10
5946.737
 20
-9880.345
 30
-661.690
 70
    32
  0
VERTEX
  8
T59SSILL
 62
3
 10
5951.143
 20
-9872.163
 30
-661.753
 70
    32
  0
VERTEX
  8
T59SSILL
 62
3
 10
5953.858
 20
-9860.140
 30
-661.823
 70
    32
  0
VERTEX
  8
T59SSILL
 62
3
 10
5972.873
 20
-9887.346
 30
-661.817
 70
    32
  0
VERTEX
  8
T59SSILL
 62
3
 10
5974.648
 20
-9899.779
 30
-661.773
 70
    32
  0
VERTEX
  8
T59SSILL
 62
3
 10
5972.856
 20
-9907.606
 30
-661.727
 70
    32
  0
VERTEX
  8
T59SSILL
 62
3
 10
5969.044
 20
-9913.814
 30
-661.677
 70
    32
  0
VERTEX
  8
T59SSILL
 62
3
 10
5926.117
 20
-9944.907
 30
-661.283
 70
    32
  0
VERTEX
  8
T59SSILL
 62
3
 10
5929.372
 20
-9951.475
 30
-661.312
 70
    32
  0
VERTEX
  8
T59SSILL
 62
3
 10
5935.414
 20
-9955.527
 30
-661.338
 70
    32
  0
VERTEX
  8
T59SSILL
 62
3
 10
5933.391
 20
-9965.721
 30
-661.368
 70
    32
  0
VERTEX
  8
T59SSILL
 62
3
 10
5937.331
 20
-9974.405
 30
-661.405
 70
    32
  0
VERTEX
  8
T59SSILL
 62
3
 10
5948.503
 20
-9987.173
 30
-661.471
 70
    32
  0
VERTEX
  8
T59SSILL
 62
3
 10
5959.221
 20
-9992.225
 30
-661.510
 70
    32
  0
VERTEX
  8
T59SSILL
 62
3
 10
5968.654
 20
-10000.762
 30
-661.558
 70
    32
  0
VERTEX
  8
T59SSILL
 62
3
 10
6009.264
 20
-10057.482
 30
-661.815
 70
    32
  0
VERTEX
  8
T59SSILL
 62
3
 10
6015.470
 20
-10054.315
 30
-661.817
 70
    32
  0
VERTEX
  8
T59SSILL
 62
3
 10
5983.117
 20
-10008.932
 30
-661.616
 70
    32
  0
VERTEX
  8
T59SSILL
 62
3
 10
5985.364
 20
-9986.777
 30
-661.547
 70
    32
  0
VERTEX
  8
T59SSILL
 62
3
 10
5972.130
 20
-9982.226
 30
-661.504
 70
    32
  0
VERTEX
  8
T59SSILL
 62
3
 10
5970.168
 20
-9967.913
 30
-661.452
 70
    32
  0
VERTEX
  8
T59SSILL
 62
3
 10
5972.974
 20
-9957.307
 30
-661.508
 70
    32
  0
VERTEX
  8
T59SSILL
 62
3
 10
5972.105
 20
-9949.760
 30
-661.536
 70
    32
  0
VERTEX
  8
T59SSILL
 62
3
 10
5981.609
 20
-9898.980
 30
-661.819
 70
    32
  0
VERTEX
  8
T59SSILL
 62
3
 10
6332.461
 20
-10388.082
 30
-661.784
 70
    32
  0
VERTEX
  8
T59SSILL
 62
3
 10
6332.738
 20
-10391.696
 30
-661.783
 70
    32
  0
VERTEX
  8
T59SSILL
 62
3
 10
6315.006
 20
-10404.774
 30
-661.776
 70
    32
  0
VERTEX
  8
T59SSILL
 62
3
 10
6325.217
 20
-10419.441
 30
-661.773
 70
    32
  0
VERTEX
  8
T59SSILL
 62
3
 10
6283.341
 20
-10449.303
 30
-661.756
 70
    32
  0
VERTEX
  8
T59SSILL
 62
3
 10
6278.610
 20
-10448.207
 30
-661.755
 70
    32
  0
VERTEX
  8
T59SSILL
 62
3
 10
6275.205
 20
-10445.287
 30
-661.755
 70
    32
  0
VERTEX
  8
T59SSILL
 62
3
 10
6256.914
 20
-10403.683
 30
-661.764
 70
    32
  0
VERTEX
  8
T59SSILL
 62
3
 10
6253.124
 20
-10399.540
 30
-661.764
 70
    32
  0
VERTEX
  8
T59SSILL
 62
3
 10
6248.866
 20
-10402.036
 30
-661.763
 70
    32
  0
VERTEX
  8
T59SSILL
 62
3
 10
6250.939
 20
-10418.595
 30
-661.758
 70
    32
  0
VERTEX
  8
T59SSILL
 62
3
 10
6257.205
 20
-10431.122
 30
-661.756
 70
    32
  0
VERTEX
  8
T59SSILL
 62
3
 10
6264.704
 20
-10451.904
 30
-661.751
 70
    32
  0
VERTEX
  8
T59SSILL
 62
3
 10
6257.719
 20
-10458.097
 30
-661.748
 70
    32
  0
VERTEX
  8
T59SSILL
 62
3
 10
6259.340
 20
-10466.624
 30
-661.745
 70
    32
  0
VERTEX
  8
T59SSILL
 62
3
 10
6211.565
 20
-10500.169
 30
-661.725
 70
    32
  0
VERTEX
  8
T59SSILL
 62
3
 10
6204.457
 20
-10490.202
 30
-661.727
 70
    32
  0
VERTEX
  8
T59SSILL
 62
3
 10
6175.630
 20
-10468.103
 30
-661.727
 70
    32
  0
VERTEX
  8
T59SSILL
 62
3
 10
6170.527
 20
-10473.792
 30
-661.724
 70
    32
  0
VERTEX
  8
T59SSILL
 62
3
 10
6185.363
 20
-10507.765
 30
-661.717
 70
    32
  0
VERTEX
  8
T59SSILL
 62
3
 10
6191.481
 20
-10515.116
 30
-661.717
 70
    32
  0
VERTEX
  8
T59SSILL
 62
3
 10
6183.217
 20
-10520.803
 30
-661.713
 70
    32
  0
VERTEX
  8
T59SSILL
 62
3
 10
6188.576
 20
-10526.097
 30
-661.713
 70
    32
  0
VERTEX
  8
T59SSILL
 62
3
 10
6202.216
 20
-10516.360
 30
-661.718
 70
    32
  0
VERTEX
  8
T59SSILL
 62
3
 10
6208.646
 20
-10524.981
 30
-661.717
 70
    32
  0
VERTEX
  8
T59SSILL
 62
3
 10
6219.005
 20
-10533.962
 30
-661.717
 70
    32
  0
VERTEX
  8
T59SSILL
 62
3
 10
6232.117
 20
-10554.941
 30
-661.713
 70
    32
  0
VERTEX
  8
T59SSILL
 62
3
 10
6249.939
 20
-10576.185
 30
-661.711
 70
    32
  0
VERTEX
  8
T59SSILL
 62
3
 10
6245.483
 20
-10579.021
 30
-661.709
 70
    32
  0
VERTEX
  8
T59SSILL
 62
3
 10
6251.549
 20
-10587.250
 30
-661.708
 70
    32
  0
VERTEX
  8
T59SSILL
 62
3
 10
6257.494
 20
-10584.274
 30
-661.710
 70
    32
  0
VERTEX
  8
T59SSILL
 62
3
 10
6272.754
 20
-10605.311
 30
-661.707
 70
    32
  0
VERTEX
  8
T59SSILL
 62
3
 10
6278.850
 20
-10601.287
 30
-661.709
 70
    32
  0
VERTEX
  8
T59SSILL
 62
3
 10
6262.938
 20
-10578.782
 30
-661.713
 70
    32
  0
VERTEX
  8
T59SSILL
 62
3
 10
6272.609
 20
-10572.186
 30
-661.717
 70
    32
  0
VERTEX
  8
T59SSILL
 62
3
 10
6266.982
 20
-10564.300
 30
-661.718
 70
    32
  0
VERTEX
  8
T59SSILL
 62
3
 10
6256.405
 20
-10571.283
 30
-661.713
 70
    32
  0
VERTEX
  8
T59SSILL
 62
3
 10
6244.112
 20
-10547.232
 30
-661.718
 70
    32
  0
VERTEX
  8
T59SSILL
 62
3
 10
6227.191
 20
-10526.554
 30
-661.721
 70
    32
  0
VERTEX
  8
T59SSILL
 62
3
 10
6216.395
 20
-10506.367
 30
-661.724
 70
    32
  0
VERTEX
  8
T59SSILL
 62
3
 10
6266.404
 20
-10469.976
 30
-661.746
 70
    32
  0
VERTEX
  8
T59SSILL
 62
3
 10
6289.370
 20
-10492.780
 30
-661.744
 70
    32
  0
VERTEX
  8
T59SSILL
 62
3
 10
6296.432
 20
-10496.449
 30
-661.744
 70
    32
  0
VERTEX
  8
T59SSILL
 62
3
 10
6301.865
 20
-10493.496
 30
-661.746
 70
    32
  0
VERTEX
  8
T59SSILL
 62
3
 10
6306.135
 20
-10488.462
 30
-661.749
 70
    32
  0
VERTEX
  8
T59SSILL
 62
3
 10
6302.325
 20
-10472.627
 30
-661.753
 70
    32
  0
VERTEX
  8
T59SSILL
 62
3
 10
6293.124
 20
-10450.543
 30
-661.757
 70
    32
  0
VERTEX
  8
T59SSILL
 62
3
 10
6332.333
 20
-10421.914
 30
-661.774
 70
    32
  0
VERTEX
  8
T59SSILL
 62
3
 10
6339.533
 20
-10411.255
 30
-661.779
 70
    32
  0
VERTEX
  8
T59SSILL
 62
3
 10
6341.946
 20
-10401.331
 30
-661.782
 70
    32
  0
VERTEX
  8
T59SSILL
 62
3
 10
6562.262
 20
-10710.675
 30
-661.749
 70
    32
  0
VERTEX
  8
T59SSILL
 62
3
 10
6563.648
 20
-10721.880
 30
-661.748
 70
    32
  0
VERTEX
  8
T59SSILL
 62
3
 10
6568.765
 20
-10729.588
 30
-661.748
 70
    32
  0
VERTEX
  8
T59SSILL
 62
3
 10
6576.596
 20
-10731.052
 30
-661.749
 70
    32
  0
VERTEX
  8
T59SSILL
 62
3
 10
6592.232
 20
-10753.282
 30
-661.749
 70
    32
  0
VERTEX
  8
T59SSILL
 62
3
 10
6584.127
 20
-10759.056
 30
-661.747
 70
    32
  0
VERTEX
  8
T59SSILL
 62
3
 10
6589.295
 20
-10766.085
 30
-661.747
 70
    32
  0
VERTEX
  8
T59SSILL
 62
3
 10
6597.496
 20
-10760.776
 30
-661.749
 70
    32
  0
VERTEX
  8
T59SSILL
 62
3
 10
6604.411
 20
-10770.132
 30
-661.749
 70
    32
  0
VERTEX
  8
T59SSILL
 62
3
 10
6609.005
 20
-10779.965
 30
-661.749
 70
    32
  0
VERTEX
  8
T59SSILL
 62
3
 10
6609.202
 20
-10790.487
 30
-661.747
 70
    32
  0
VERTEX
  8
T59SSILL
 62
3
 10
6607.764
 20
-10795.338
 30
-661.746
 70
    32
  0
VERTEX
  8
T59SSILL
 62
3
 10
6600.761
 20
-10805.657
 30
-661.743
 70
    32
  0
VERTEX
  8
T59SSILL
 62
3
 10
6572.677
 20
-10824.620
 30
-661.733
 70
    32
  0
VERTEX
  8
T59SSILL
 62
3
 10
6577.141
 20
-10830.742
 30
-661.734
 70
    32
  0
VERTEX
  8
T59SSILL
 62
3
 10
6609.477
 20
-10811.728
 30
-661.744
 70
    32
  0
VERTEX
  8
T59SSILL
 62
3
 10
6616.607
 20
-10802.403
 30
-661.747
 70
    32
  0
VERTEX
  8
T59SSILL
 62
3
 10
6620.571
 20
-10791.791
 30
-661.750
 70
    32
  0
VERTEX
  8
T59SSILL
 62
3
 10
6620.277
 20
-10778.230
 30
-661.750
 70
    32
  0
VERTEX
  8
T59SSILL
 62
3
 10
6603.554
 20
-10754.456
 30
-661.750
 70
    32
  0
VERTEX
  8
T59SSILL
 62
3
 10
6608.573
 20
-10751.037
 30
-661.749
 70
    32
  0
VERTEX
  8
T59SSILL
 62
3
 10
6605.639
 20
-10746.752
 30
-661.749
 70
    32
  0
VERTEX
  8
T59SSILL
 62
3
 10
6600.496
 20
-10750.464
 30
-661.750
 70
    32
  0
VERTEX
  8
T59SSILL
 62
3
 10
6585.508
 20
-10729.050
 30
-661.750
 70
    32
  0
VERTEX
  8
T59SSILL
 62
3
 10
6586.655
 20
-10722.626
 30
-661.749
 70
    32
  0
VERTEX
  8
T59SSILL
 62
3
 10
6590.994
 20
-10715.794
 30
-661.749
 70
    32
  0
VERTEX
  8
T59SSILL
 62
3
 10
6594.364
 20
-10713.775
 30
-661.749
 70
    32
  0
VERTEX
  8
T59SSILL
 62
3
 10
6590.501
 20
-10705.606
 30
-661.748
 70
    32
  0
VERTEX
  8
T59SSILL
 62
3
 10
6584.603
 20
-10709.503
 30
-661.749
 70
    32
  0
VERTEX
  8
T59SSILL
 62
3
 10
6570.059
 20
-10707.537
 30
-661.750
 70
    32
  0
VERTEX
  8
T59SSILL
 62
3
 10
6344.915
 20
-10392.410
 30
-661.784
 70
    32
  0
VERTEX
  8
T59SSILL
 62
3
 10
6341.741
 20
-10376.260
 30
-661.785
 70
    32
  0
VERTEX
  8
T59SSILL
 62
3
 10
6336.643
 20
-10364.545
 30
-661.786
 70
    32
  0
VERTEX
  8
T59SSILL
 62
3
 10
6334.464
 20
-10328.017
 30
-661.787
 70
    32
  0
VERTEX
  8
T59SSILL
 62
3
 10
6332.709
 20
-10322.004
 30
-661.787
 70
    32
  0
VERTEX
  8
T59SSILL
 62
3
 10
6323.513
 20
-10315.103
 30
-661.789
 70
    32
  0
VERTEX
  8
T59SSILL
 62
3
 10
6303.674
 20
-10308.057
 30
-661.793
 70
    32
  0
VERTEX
  8
T59SSILL
 62
3
 10
6296.965
 20
-10307.319
 30
-661.794
 70
    32
  0
VERTEX
  8
T59SSILL
 62
3
 10
6286.602
 20
-10310.153
 30
-661.796
 70
    32
  0
VERTEX
  8
T59SSILL
 62
3
 10
6281.412
 20
-10302.611
 30
-661.797
 70
    32
  0
VERTEX
  8
T59SSILL
 62
3
 10
6278.712
 20
-10295.008
 30
-661.798
 70
    32
  0
VERTEX
  8
T59SSILL
 62
3
 10
6280.851
 20
-10286.107
 30
-661.797
 70
    32
  0
VERTEX
  8
T59SSILL
 62
3
 10
6273.489
 20
-10273.039
 30
-661.799
 70
    32
  0
VERTEX
  8
T59SSILL
 62
3
 10
6260.254
 20
-10263.216
 30
-661.802
 70
    32
  0
VERTEX
  8
T59SSILL
 62
3
 10
6253.197
 20
-10263.867
 30
-661.803
 70
    32
  0
VERTEX
  8
T59SSILL
 62
3
 10
6002.777
 20
-9914.429
 30
-661.847
 70
    32
  0
VERTEX
  8
T59SSILL
 62
3
 10
5904.470
 20
-9780.435
 30
-661.857
 70
    32
  0
VERTEX
  8
T59SSILL
 62
3
 10
5919.144
 20
-9779.948
 30
-661.855
 70
    32
  0
VERTEX
  8
T59SSILL
 62
3
 10
5927.824
 20
-9777.046
 30
-661.853
 70
    32
  0
VERTEX
  8
T59SSILL
 62
3
 10
6033.598
 20
-9700.616
 30
-661.832
 70
    32
  0
VERTEX
  8
T59SSILL
 62
3
 10
6047.682
 20
-9695.548
 30
-661.829
 70
    32
  0
VERTEX
  8
T59SSILL
 62
3
 10
6057.778
 20
-9694.453
 30
-661.827
 70
    32
  0
VERTEX
  8
T59SSILL
 62
3
 10
6066.771
 20
-9695.898
 30
-661.826
 70
    32
  0
VERTEX
  8
T59SSILL
 62
3
 10
6077.392
 20
-9700.194
 30
-661.824
 70
    32
  0
VERTEX
  8
T59SSILL
 62
3
 10
6086.245
 20
-9705.660
 30
-661.823
 70
    32
  0
VERTEX
  8
T59SSILL
 62
3
 10
6094.051
 20
-9714.496
 30
-661.822
 70
    32
  0
VERTEX
  8
T59SSILL
 62
3
 10
6140.953
 20
-9779.990
 30
-661.817
 70
    32
  0
VERTEX
  8
T59SSILL
 62
3
 10
6140.949
 20
-9782.921
 30
-661.817
 70
    32
  0
VERTEX
  8
T59SSILL
 62
3
 10
6132.727
 20
-9789.343
 30
-661.819
 70
    32
  0
VERTEX
  8
T59SSILL
 62
3
 10
6139.648
 20
-9799.650
 30
-661.818
 70
    32
  0
VERTEX
  8
T59SSILL
 62
3
 10
6151.090
 20
-9794.825
 30
-661.816
 70
    32
  0
VERTEX
  8
T59SSILL
 62
3
 10
6156.583
 20
-9801.761
 30
-661.815
 70
    32
  0
VERTEX
  8
T59SSILL
 62
3
 10
6162.580
 20
-9798.230
 30
-661.814
 70
    32
  0
VERTEX
  8
T59SSILL
 62
3
 10
6157.175
 20
-9789.146
 30
-661.815
 70
    32
  0
VERTEX
  8
T59SSILL
 62
3
 10
6157.451
 20
-9784.682
 30
-661.814
 70
    32
  0
VERTEX
  8
T59SSILL
 62
3
 10
6164.408
 20
-9779.385
 30
-661.813
 70
    32
  0
VERTEX
  8
T59SSILL
 62
3
 10
6159.296
 20
-9773.042
 30
-661.813
 70
    32
  0
VERTEX
  8
T59SSILL
 62
3
 10
6150.162
 20
-9779.838
 30
-661.815
 70
    32
  0
VERTEX
  8
T59SSILL
 62
3
 10
6094.263
 20
-9702.990
 30
-661.821
 70
    32
  0
VERTEX
  8
T59SSILL
 62
3
 10
6086.665
 20
-9696.398
 30
-661.822
 70
    32
  0
VERTEX
  8
T59SSILL
 62
3
 10
6075.007
 20
-9689.913
 30
-661.824
 70
    32
  0
VERTEX
  8
T59SSILL
 62
3
 10
6053.979
 20
-9686.387
 30
-661.827
 70
    32
  0
VERTEX
  8
T59SSILL
 62
3
 10
6084.147
 20
-9665.734
 30
-661.821
 70
    32
  0
VERTEX
  8
T59SSILL
 62
3
 10
6087.468
 20
-9670.627
 30
-661.821
 70
    32
  0
VERTEX
  8
T59SSILL
 62
3
 10
6093.819
 20
-9665.707
 30
-661.820
 70
    32
  0
VERTEX
  8
T59SSILL
 62
3
 10
6091.062
 20
-9660.842
 30
-661.820
 70
    32
  0
VERTEX
  8
T59SSILL
 62
3
 10
6127.971
 20
-9634.039
 30
-661.812
 70
    32
  0
VERTEX
  8
T59SSILL
 62
3
 10
6131.753
 20
-9638.817
 30
-661.812
 70
    32
  0
VERTEX
  8
T59SSILL
 62
3
 10
6138.175
 20
-9633.846
 30
-661.810
 70
    32
  0
VERTEX
  8
T59SSILL
 62
3
 10
6135.152
 20
-9629.063
 30
-661.811
 70
    32
  0
VERTEX
  8
T59SSILL
 62
3
 10
6211.270
 20
-9575.114
 30
-661.795
 70
    32
  0
VERTEX
  8
T59SSILL
 62
3
 10
6206.632
 20
-9569.964
 30
-661.796
 70
    32
  0
VERTEX
  8
T59SSILL
 62
3
 10
5926.163
 20
-9770.081
 30
-661.853
 70
    32
  0
VERTEX
  8
T59SSILL
 62
3
 10
5918.766
 20
-9773.253
 30
-661.855
 70
    32
  0
VERTEX
  8
T59SSILL
 62
3
 10
5910.382
 20
-9774.308
 30
-661.856
 70
    32
  0
VERTEX
  8
T59SSILL
 62
3
 10
5897.593
 20
-9770.926
 30
-661.858
 70
    32
  0
VERTEX
  8
T59SSILL
 62
3
 10
5323.293
 20
-8971.112
 30
-662.038
 70
    32
  0
VERTEX
  8
T59SSILL
 62
3
 10
5317.360
 20
-8958.090
 30
-661.952
 70
    32
  0
VERTEX
  8
T59SSILL
 62
3
 10
5316.227
 20
-8939.963
 30
-661.840
 70
    32
  0
VERTEX
  8
T59SSILL
 62
3
 10
5321.732
 20
-8923.786
 30
-661.751
 70
    32
  0
VERTEX
  8
T59SSILL
 62
3
 10
5334.399
 20
-8909.835
 30
-661.682
 70
    32
  0
VERTEX
  8
T59SSILL
 62
3
 10
5899.309
 20
-8505.464
 30
-659.828
 70
    32
  0
VERTEX
  8
T59SSILL
 62
3
 10
5913.000
 20
-8526.000
 30
-659.959
 70
    32
  0
VERTEX
  8
T59SSILL
 62
3
 10
5921.000
 20
-8522.000
 30
-659.943
 70
    32
  0
VERTEX
  8
T59SSILL
 62
3
 10
5928.000
 20
-8521.000
 30
-659.943
 70
    32
  0
VERTEX
  8
T59SSILL
 62
3
 10
5911.000
 20
-8494.000
 30
-659.772
 70
    32
  0
VERTEX
  8
T59SSILL
 62
3
 10
5913.000
 20
-8491.000
 30
-659.756
 70
    32
  0
VERTEX
  8
T59SSILL
 62
3
 10
5933.000
 20
-8477.000
 30
-659.693
 70
    32
  0
VERTEX
  8
T59SSILL
 62
3
 10
5939.000
 20
-8479.000
 30
-659.709
 70
    32
  0
VERTEX
  8
T59SSILL
 62
3
 10
5943.000
 20
-8485.000
 30
-659.748
 70
    32
  0
VERTEX
  8
T59SSILL
 62
3
 10
5947.000
 20
-8486.000
 30
-659.757
 70
    32
  0
VERTEX
  8
T59SSILL
 62
3
 10
5954.000
 20
-8480.000
 30
-659.728
 70
    32
  0
VERTEX
  8
T59SSILL
 62
3
 10
5949.000
 20
-8470.000
 30
-659.666
 70
    32
  0
VERTEX
  8
T59SSILL
 62
3
 10
5949.000
 20
-8466.000
 30
-659.643
 70
    32
  0
VERTEX
  8
T59SSILL
 62
3
 10
6317.998
 20
-8199.508
 30
-658.422
 70
    32
  0
VERTEX
  8
T59SSILL
 62
3
 10
6333.772
 20
-8194.790
 30
-658.418
 70
    32
  0
VERTEX
  8
T59SSILL
 62
3
 10
6344.955
 20
-8194.780
 30
-658.424
 70
    32
  0
VERTEX
  8
T59SSILL
 62
3
 10
6359.990
 20
-8199.195
 30
-658.453
 70
    32
  0
VERTEX
  8
T59SSILL
 62
3
 10
6369.854
 20
-8206.047
 30
-658.501
 70
    32
  0
VERTEX
  8
T59SSILL
 62
3
 10
6377.598
 20
-8214.016
 30
-658.554
 70
    32
  0
VERTEX
  8
T59SSILL
 62
3
 10
6478.397
 20
-8354.932
 30
-659.481
 70
    32
  0
VERTEX
  8
T59SSILL
 62
3
 10
6478.155
 20
-8361.811
 30
-659.523
 70
    32
  0
VERTEX
  8
T59SSILL
 62
3
 10
6473.907
 20
-8369.698
 30
-659.567
 70
    32
  0
VERTEX
  8
T59SSILL
 62
3
 10
6471.344
 20
-8380.387
 30
-659.629
 70
    32
  0
VERTEX
  8
T59SSILL
 62
3
 10
6474.459
 20
-8387.974
 30
-659.679
 70
    32
  0
VERTEX
  8
T59SSILL
 62
3
 10
6483.059
 20
-8399.094
 30
-659.757
 70
    32
  0
VERTEX
  8
T59SSILL
 62
3
 10
6495.552
 20
-8394.253
 30
-659.740
 70
    32
  0
VERTEX
  8
T59SSILL
 62
3
 10
6509.265
 20
-8411.819
 30
-659.862
 70
    32
  0
VERTEX
  8
T59SSILL
 62
3
 10
6514.675
 20
-8408.793
 30
-659.850
 70
    32
  0
VERTEX
  8
T59SSILL
 62
3
 10
6518.908
 20
-8411.894
 30
-659.873
 70
    32
  0
VERTEX
  8
T59SSILL
 62
3
 10
6511.322
 20
-8448.047
 30
-660.087
 70
    32
  0
VERTEX
  8
T59SSILL
 62
3
 10
6505.544
 20
-8447.699
 30
-660.079
 70
    32
  0
VERTEX
  8
T59SSILL
 62
3
 10
6496.971
 20
-8443.382
 30
-660.043
 70
    32
  0
VERTEX
  8
T59SSILL
 62
3
 10
6486.855
 20
-8442.136
 30
-660.025
 70
    32
  0
VERTEX
  8
T59SSILL
 62
3
 10
6478.874
 20
-8444.986
 30
-660.034
 70
    32
  0
VERTEX
  8
T59SSILL
 62
3
 10
6475.474
 20
-8448.461
 30
-660.051
 70
    32
  0
VERTEX
  8
T59SSILL
 62
3
 10
6474.557
 20
-8453.558
 30
-660.082
 70
    32
  0
VERTEX
  8
T59SSILL
 62
3
 10
6475.970
 20
-8469.014
 30
-660.178
 70
    32
  0
VERTEX
  8
T59SSILL
 62
3
 10
6485.204
 20
-8499.633
 30
-660.376
 70
    32
  0
VERTEX
  8
T59SSILL
 62
3
 10
6484.891
 20
-8506.879
 30
-660.420
 70
    32
  0
VERTEX
  8
T59SSILL
 62
3
 10
6482.946
 20
-8511.008
 30
-660.443
 70
    32
  0
VERTEX
  8
T59SSILL
 62
3
 10
6433.481
 20
-8546.932
 30
-660.611
 70
    32
  0
VERTEX
  8
T59SSILL
 62
3
 10
6439.369
 20
-8553.295
 30
-660.656
 70
    32
  0
VERTEX
  8
T59SSILL
 62
3
 10
6485.794
 20
-8519.696
 30
-660.499
 70
    32
  0
VERTEX
  8
T59SSILL
 62
3
 10
6498.633
 20
-8541.478
 30
-660.647
 70
    32
  0
VERTEX
  8
T59SSILL
 62
3
 10
6505.745
 20
-8550.088
 30
-660.707
 70
    32
  0
VERTEX
  8
T59SSILL
 62
3
 10
6515.631
 20
-8553.196
 30
-660.737
 70
    32
  0
VERTEX
  8
T59SSILL
 62
3
 10
6527.658
 20
-8548.138
 30
-660.718
 70
    32
  0
VERTEX
  8
T59SSILL
 62
3
 10
6531.983
 20
-8534.230
 30
-660.637
 70
    32
  0
VERTEX
  8
T59SSILL
 62
3
 10
6530.698
 20
-8509.523
 30
-660.485
 70
    32
  0
VERTEX
  8
T59SSILL
 62
3
 10
6532.594
 20
-8498.007
 30
-660.416
 70
    32
  0
VERTEX
  8
T59SSILL
 62
3
 10
6542.269
 20
-8486.017
 30
-660.353
 70
    32
  0
VERTEX
  8
T59SSILL
 62
3
 10
6552.689
 20
-8478.744
 30
-660.319
 70
    32
  0
VERTEX
  8
T59SSILL
 62
3
 10
6565.088
 20
-8474.394
 30
-660.305
 70
    32
  0
VERTEX
  8
T59SSILL
 62
3
 10
6609.555
 20
-8536.881
 30
-660.736
 70
    32
  0
VERTEX
  8
T59SSILL
 62
3
 10
6606.007
 20
-8550.049
 30
-660.813
 70
    32
  0
VERTEX
  8
T59SSILL
 62
3
 10
6535.383
 20
-8599.960
 30
-661.044
 70
    32
  0
VERTEX
  8
T59SSILL
 62
3
 10
6541.449
 20
-8605.618
 30
-661.085
 70
    32
  0
VERTEX
  8
T59SSILL
 62
3
 10
6549.703
 20
-8600.025
 30
-661.060
 70
    32
  0
VERTEX
  8
T59SSILL
 62
3
 10
6553.926
 20
-8605.158
 30
-661.096
 70
    32
  0
VERTEX
  8
T59SSILL
 62
3
 10
6561.254
 20
-8600.086
 30
-661.073
 70
    32
  0
VERTEX
  8
T59SSILL
 62
3
 10
6557.488
 20
-8593.898
 30
-661.031
 70
    32
  0
VERTEX
  8
T59SSILL
 62
3
 10
6619.448
 20
-8550.855
 30
-660.832
 70
    32
  0
VERTEX
  8
T59SSILL
 62
3
 10
6668.881
 20
-8619.570
 30
-661.306
 70
    32
  0
VERTEX
  8
T59SSILL
 62
3
 10
6667.736
 20
-8630.151
 30
-661.370
 70
    32
  0
VERTEX
  8
T59SSILL
 62
3
 10
6651.376
 20
-8641.554
 30
-661.422
 70
    32
  0
VERTEX
  8
T59SSILL
 62
3
 10
6643.736
 20
-8637.671
 30
-661.390
 70
    32
  0
VERTEX
  8
T59SSILL
 62
3
 10
6640.395
 20
-8642.493
 30
-661.417
 70
    32
  0
VERTEX
  8
T59SSILL
 62
3
 10
6645.681
 20
-8645.733
 30
-661.442
 70
    32
  0
VERTEX
  8
T59SSILL
 62
3
 10
6625.957
 20
-8659.652
 30
-661.470
 70
    32
  0
VERTEX
  8
T59SSILL
 62
3
 10
6631.586
 20
-8665.513
 30
-661.466
 70
    32
  0
VERTEX
  8
T59SSILL
 62
3
 10
6677.984
 20
-8632.693
 30
-661.396
 70
    32
  0
VERTEX
  8
T59SSILL
 62
3
 10
6780.037
 20
-8775.334
 30
-661.555
 70
    32
  0
VERTEX
  8
T59SSILL
 62
3
 10
6776.370
 20
-8788.696
 30
-661.564
 70
    32
  0
VERTEX
  8
T59SSILL
 62
3
 10
6627.237
 20
-8894.601
 30
-661.614
 70
    32
  0
VERTEX
  8
T59SSILL
 62
3
 10
6633.126
 20
-8901.536
 30
-661.620
 70
    32
  0
VERTEX
  8
T59SSILL
 62
3
 10
6676.105
 20
-8870.379
 30
-661.605
 70
    32
  0
VERTEX
  8
T59SSILL
 62
3
 10
6683.862
 20
-8876.917
 30
-661.611
 70
    32
  0
VERTEX
  8
T59SSILL
 62
3
 10
6685.906
 20
-8876.725
 30
-661.611
 70
    32
  0
VERTEX
  8
T59SSILL
 62
3
 10
6709.175
 20
-8859.620
 30
-661.603
 70
    32
  0
VERTEX
  8
T59SSILL
 62
3
 10
6707.368
 20
-8847.944
 30
-661.594
 70
    32
  0
VERTEX
  8
T59SSILL
 62
3
 10
6790.480
 20
-8788.268
 30
-661.566
 70
    32
  0
VERTEX
  8
T59SSILL
 62
3
 10
6941.172
 20
-8999.206
 30
-661.659
 70
    32
  0
VERTEX
  8
T59SSILL
 62
3
 10
6934.136
 20
-9004.044
 30
-661.660
 70
    32
  0
VERTEX
  8
T59SSILL
 62
3
 10
6938.646
 20
-9009.324
 30
-661.660
 70
    32
  0
VERTEX
  8
T59SSILL
 62
3
 10
6944.732
 20
-9004.348
 30
-661.659
 70
    32
  0
VERTEX
  8
T59SSILL
 62
3
 10
6991.381
 20
-9070.482
 30
-661.664
 70
    32
  0
VERTEX
  8
T59SSILL
 62
3
 10
7000.168
 20
-9079.759
 30
-661.665
 70
    32
  0
VERTEX
  8
T59SSILL
 62
3
 10
7011.325
 20
-9084.233
 30
-661.665
 70
    32
  0
VERTEX
  8
T59SSILL
 62
3
 10
7029.272
 20
-9082.186
 30
-661.663
 70
    32
  0
VERTEX
  8
T59SSILL
 62
3
 10
7092.512
 20
-9037.267
 30
-661.657
 70
    32
  0
VERTEX
  8
T59SSILL
 62
3
 10
7086.796
 20
-9031.484
 30
-661.657
 70
    32
  0
VERTEX
  8
T59SSILL
 62
3
 10
7023.395
 20
-9076.125
 30
-661.663
 70
    32
  0
VERTEX
  8
T59SSILL
 62
3
 10
7013.863
 20
-9076.685
 30
-661.664
 70
    32
  0
VERTEX
  8
T59SSILL
 62
3
 10
7003.315
 20
-9071.107
 30
-661.664
 70
    32
  0
VERTEX
  8
T59SSILL
 62
3
 10
6676.996
 20
-8618.335
 30
-661.307
 70
    32
  0
VERTEX
  8
T59SSILL
 62
3
 10
6687.970
 20
-8619.082
 30
-661.323
 70
    32
  0
VERTEX
  8
T59SSILL
 62
3
 10
6698.473
 20
-8617.000
 30
-661.336
 70
    32
  0
VERTEX
  8
T59SSILL
 62
3
 10
6807.840
 20
-8538.534
 30
-660.835
 70
    32
  0
VERTEX
  8
T59SSILL
 62
3
 10
6812.862
 20
-8545.789
 30
-660.854
 70
    32
  0
VERTEX
  8
T59SSILL
 62
3
 10
6832.313
 20
-8532.184
 30
-660.767
 70
    32
  0
VERTEX
  8
T59SSILL
 62
3
 10
6827.416
 20
-8525.271
 30
-660.748
 70
    32
  0
VERTEX
  8
T59SSILL
 62
3
 10
6850.941
 20
-8507.882
 30
-660.638
 70
    32
  0
VERTEX
  8
T59SSILL
 62
3
 10
6845.634
 20
-8502.139
 30
-660.625
 70
    32
  0
VERTEX
  8
T59SSILL
 62
3
 10
6821.935
 20
-8518.753
 30
-660.732
 70
    32
  0
VERTEX
  8
T59SSILL
 62
3
 10
6822.893
 20
-8512.775
 30
-660.707
 70
    32
  0
VERTEX
  8
T59SSILL
 62
3
 10
6821.470
 20
-8502.336
 30
-660.669
 70
    32
  0
VERTEX
  8
T59SSILL
 62
3
 10
6816.589
 20
-8491.042
 30
-660.633
 70
    32
  0
VERTEX
  8
T59SSILL
 62
3
 10
6822.536
 20
-8474.650
 30
-660.558
 70
    32
  0
VERTEX
  8
T59SSILL
 62
3
 10
6821.415
 20
-8462.300
 30
-660.512
 70
    32
  0
VERTEX
  8
T59SSILL
 62
3
 10
6808.067
 20
-8437.879
 30
-660.439
 70
    32
  0
VERTEX
  8
T59SSILL
 62
3
 10
6800.917
 20
-8430.786
 30
-660.424
 70
    32
  0
VERTEX
  8
T59SSILL
 62
3
 10
6793.808
 20
-8425.798
 30
-660.417
 70
    32
  0
VERTEX
  8
T59SSILL
 62
3
 10
6784.472
 20
-8427.434
 30
-660.440
 70
    32
  0
VERTEX
  8
T59SSILL
 62
3
 10
6739.115
 20
-8337.520
 30
-659.756
 70
    32
  0
VERTEX
  8
T59SSILL
 62
3
 10
6818.291
 20
-8280.100
 30
-659.724
 70
    32
  0
VERTEX
  8
T59SSILL
 62
3
 10
6809.990
 20
-8269.252
 30
-659.620
 70
    32
  0
VERTEX
  8
T59SSILL
 62
3
 10
6804.297
 20
-8273.749
 30
-659.625
 70
    32
  0
VERTEX
  8
T59SSILL
 62
3
 10
6807.269
 20
-8278.450
 30
-659.667
 70
    32
  0
VERTEX
  8
T59SSILL
 62
3
 10
6744.882
 20
-8323.381
 30
-659.690
 70
    32
  0
VERTEX
  8
T59SSILL
 62
3
 10
6737.200
 20
-8323.683
 30
-659.660
 70
    32
  0
VERTEX
  8
T59SSILL
 62
3
 10
6729.796
 20
-8318.575
 30
-659.597
 70
    32
  0
VERTEX
  8
T59SSILL
 62
3
 10
6688.229
 20
-8238.029
 30
-658.986
 70
    32
  0
VERTEX
  8
T59SSILL
 62
3
 10
6693.482
 20
-8240.119
 30
-659.004
 70
    32
  0
VERTEX
  8
T59SSILL
 62
3
 10
6703.812
 20
-8240.580
 30
-659.018
 70
    32
  0
VERTEX
  8
T59SSILL
 62
3
 10
6718.705
 20
-8235.820
 30
-659.027
 70
    32
  0
VERTEX
  8
T59SSILL
 62
3
 10
6722.782
 20
-8241.051
 30
-659.077
 70
    32
  0
VERTEX
  8
T59SSILL
 62
3
 10
6729.137
 20
-8236.745
 30
-659.076
 70
    32
  0
VERTEX
  8
T59SSILL
 62
3
 10
6725.156
 20
-8231.342
 30
-659.025
 70
    32
  0
VERTEX
  8
T59SSILL
 62
3
 10
6772.491
 20
-8197.109
 30
-659.007
 70
    32
  0
VERTEX
  8
T59SSILL
 62
3
 10
6767.890
 20
-8190.979
 30
-658.949
 70
    32
  0
VERTEX
  8
T59SSILL
 62
3
 10
6716.103
 20
-8228.204
 30
-658.967
 70
    32
  0
VERTEX
  8
T59SSILL
 62
3
 10
6703.437
 20
-8232.948
 30
-658.971
 70
    32
  0
VERTEX
  8
T59SSILL
 62
3
 10
6693.766
 20
-8232.359
 30
-658.957
 70
    32
  0
VERTEX
  8
T59SSILL
 62
3
 10
6686.569
 20
-8228.816
 30
-658.927
 70
    32
  0
VERTEX
  8
T59SSILL
 62
3
 10
6673.535
 20
-8213.667
 30
-658.821
 70
    32
  0
VERTEX
  8
T59SSILL
 62
3
 10
6662.134
 20
-8207.536
 30
-658.771
 70
    32
  0
VERTEX
  8
T59SSILL
 62
3
 10
6653.828
 20
-8206.130
 30
-658.753
 70
    32
  0
VERTEX
  8
T59SSILL
 62
3
 10
6725.442
 20
-8154.840
 30
-658.542
 70
    32
  0
VERTEX
  8
T59SSILL
 62
3
 10
6787.061
 20
-8167.767
 30
-658.882
 70
    32
  0
VERTEX
  8
T59SSILL
 62
3
 10
6789.032
 20
-8161.614
 30
-658.851
 70
    32
  0
VERTEX
  8
T59SSILL
 62
3
 10
6780.606
 20
-8158.711
 30
-658.798
 70
    32
  0
VERTEX
  8
T59SSILL
 62
3
 10
6781.909
 20
-8152.926
 30
-658.767
 70
    32
  0
VERTEX
  8
T59SSILL
 62
3
 10
6759.635
 20
-8142.545
 30
-658.608
 70
    32
  0
VERTEX
  8
T59SSILL
 62
3
 10
6752.545
 20
-8153.317
 30
-658.646
 70
    32
  0
VERTEX
  8
T59SSILL
 62
3
 10
6733.182
 20
-8149.276
 30
-658.539
 70
    32
  0
VERTEX
  8
T59SSILL
 62
3
 10
6833.604
 20
-8075.867
 30
-658.514
 70
    32
  0
VERTEX
  8
T59SSILL
 62
3
 10
6833.723
 20
-8089.640
 30
-658.583
 70
    32
  0
VERTEX
  8
T59SSILL
 62
3
 10
6841.610
 20
-8093.731
 30
-658.642
 70
    32
  0
VERTEX
  8
T59SSILL
 62
3
 10
6843.741
 20
-8092.956
 30
-658.646
 70
    32
  0
VERTEX
  8
T59SSILL
 62
3
 10
6853.433
 20
-8072.272
 30
-658.556
 70
    32
  0
VERTEX
  8
T59SSILL
 62
3
 10
6856.071
 20
-8060.589
 30
-658.514
 70
    32
  0
VERTEX
  8
T59SSILL
 62
3
 10
6859.998
 20
-8057.252
 30
-658.513
 70
    32
  0
VERTEX
  8
T59SSILL
 62
3
 10
6840.641
 20
-8032.935
 30
-658.459
 70
    32
  0
VERTEX
  8
T59SSILL
 62
3
 10
6830.791
 20
-8043.466
 30
-658.465
 70
    32
  0
VERTEX
  8
T59SSILL
 62
3
 10
6833.092
 20
-8049.664
 30
-658.476
 70
    32
  0
VERTEX
  8
T59SSILL
 62
3
 10
6832.268
 20
-8060.511
 30
-658.491
 70
    32
  0
VERTEX
  8
T59SSILL
 62
3
 10
6833.976
 20
-8066.494
 30
-658.501
 70
    32
  0
VERTEX
  8
T59SSILL
 62
3
 10
6812.093
 20
-8082.172
 30
-658.503
 70
    32
  0
VERTEX
  8
T59SSILL
 62
3
 10
6808.268
 20
-8064.728
 30
-658.474
 70
    32
  0
VERTEX
  8
T59SSILL
 62
3
 10
6817.370
 20
-8048.179
 30
-658.459
 70
    32
  0
VERTEX
  8
T59SSILL
 62
3
 10
6822.561
 20
-8025.765
 30
-658.432
 70
    32
  0
VERTEX
  8
T59SSILL
 62
3
 10
6824.991
 20
-8021.254
 30
-658.427
 70
    32
  0
VERTEX
  8
T59SSILL
 62
3
 10
6836.384
 20
-8013.279
 30
-658.427
 70
    32
  0
VERTEX
  8
T59SSILL
 62
3
 10
6834.645
 20
-7989.134
 30
-658.390
 70
    32
  0
VERTEX
  8
T59SSILL
 62
3
 10
6818.125
 20
-7983.831
 30
-658.367
 70
    32
  0
VERTEX
  8
T59SSILL
 62
3
 10
6805.308
 20
-7981.337
 30
-658.351
 70
    32
  0
VERTEX
  8
T59SSILL
 62
3
 10
6793.109
 20
-7981.024
 30
-658.339
 70
    32
  0
VERTEX
  8
T59SSILL
 62
3
 10
6784.124
 20
-7982.929
 30
-658.333
 70
    32
  0
VERTEX
  8
T59SSILL
 62
3
 10
6781.292
 20
-7988.258
 30
-658.338
 70
    32
  0
VERTEX
  8
T59SSILL
 62
3
 10
6770.026
 20
-8000.260
 30
-658.345
 70
    32
  0
VERTEX
  8
T59SSILL
 62
3
 10
6768.526
 20
-8022.272
 30
-658.375
 70
    32
  0
VERTEX
  8
T59SSILL
 62
3
 10
6770.422
 20
-8033.564
 30
-658.393
 70
    32
  0
VERTEX
  8
T59SSILL
 62
3
 10
6773.594
 20
-8038.875
 30
-658.404
 70
    32
  0
VERTEX
  8
T59SSILL
 62
3
 10
6791.362
 20
-8052.202
 30
-658.440
 70
    32
  0
VERTEX
  8
T59SSILL
 62
3
 10
6798.625
 20
-8054.742
 30
-658.451
 70
    32
  0
VERTEX
  8
T59SSILL
 62
3
 10
6803.985
 20
-8084.362
 30
-658.498
 70
    32
  0
VERTEX
  8
T59SSILL
 62
3
 10
6800.293
 20
-8091.340
 30
-658.505
 70
    32
  0
VERTEX
  8
T59SSILL
 62
3
 10
6489.426
 20
-8314.422
 30
-659.244
 70
    32
  0
VERTEX
  8
T59SSILL
 62
3
 10
6483.184
 20
-8317.479
 30
-659.256
 70
    32
  0
VERTEX
  8
T59SSILL
 62
3
 10
6472.080
 20
-8318.394
 30
-659.250
 70
    32
  0
VERTEX
  8
T59SSILL
 62
3
 10
6458.625
 20
-8312.376
 30
-659.199
 70
    32
  0
VERTEX
  8
T59SSILL
 62
3
 10
6416.981
 20
-8254.370
 30
-658.823
 70
    32
  0
VERTEX
  8
T59SSILL
 62
3
 10
6422.992
 20
-8249.871
 30
-658.802
 70
    32
  0
VERTEX
  8
T59SSILL
 62
3
 10
6419.473
 20
-8244.049
 30
-658.765
 70
    32
  0
VERTEX
  8
T59SSILL
 62
3
 10
6412.802
 20
-8248.675
 30
-658.786
 70
    32
  0
VERTEX
  8
T59SSILL
 62
3
 10
6378.261
 20
-8201.310
 30
-658.481
 70
    32
  0
VERTEX
  8
T59SSILL
 62
3
 10
6361.028
 20
-8190.818
 30
-658.421
 70
    32
  0
VERTEX
  8
T59SSILL
 62
3
 10
6346.437
 20
-8186.742
 30
-658.402
 70
    32
  0
VERTEX
  8
T59SSILL
 62
3
 10
6337.937
 20
-8179.072
 30
-658.376
 70
    32
  0
VERTEX
  8
T59SSILL
 62
3
 10
6308.334
 20
-8196.570
 30
-658.409
 70
    32
  0
VERTEX
  8
T59SSILL
 62
3
 10
6046.912
 20
-8384.615
 30
-659.256
 70
    32
  0
VERTEX
  8
T59SSILL
 62
3
 10
6051.357
 20
-8356.889
 30
-659.099
 70
    32
  0
VERTEX
  8
T59SSILL
 62
3
 10
6042.624
 20
-8355.264
 30
-659.082
 70
    32
  0
VERTEX
  8
T59SSILL
 62
3
 10
6036.862
 20
-8392.066
 30
-659.290
 70
    32
  0
VERTEX
  8
T59SSILL
 62
3
 10
5979.000
 20
-8432.000
 30
-659.472
 70
    32
  0
VERTEX
  8
T59SSILL
 62
3
 10
5975.000
 20
-8434.000
 30
-659.480
 70
    32
  0
VERTEX
  8
T59SSILL
 62
3
 10
5970.000
 20
-8434.000
 30
-659.475
 70
    32
  0
VERTEX
  8
T59SSILL
 62
3
 10
5961.000
 20
-8433.000
 30
-659.462
 70
    32
  0
VERTEX
  8
T59SSILL
 62
3
 10
5948.000
 20
-8426.000
 30
-659.410
 70
    32
  0
VERTEX
  8
T59SSILL
 62
3
 10
5936.000
 20
-8409.000
 30
-659.301
 70
    32
  0
VERTEX
  8
T59SSILL
 62
3
 10
5938.000
 20
-8405.000
 30
-659.279
 70
    32
  0
VERTEX
  8
T59SSILL
 62
3
 10
5944.000
 20
-8400.000
 30
-659.256
 70
    32
  0
VERTEX
  8
T59SSILL
 62
3
 10
5944.000
 20
-8396.000
 30
-659.232
 70
    32
  0
VERTEX
  8
T59SSILL
 62
3
 10
5942.000
 20
-8393.000
 30
-659.213
 70
    32
  0
VERTEX
  8
T59SSILL
 62
3
 10
5936.000
 20
-8389.000
 30
-659.185
 70
    32
  0
VERTEX
  8
T59SSILL
 62
3
 10
5924.000
 20
-8392.000
 30
-659.192
 70
    32
  0
VERTEX
  8
T59SSILL
 62
3
 10
5835.000
 20
-8269.000
 30
-658.401
 70
    32
  0
VERTEX
  8
T59SSILL
 62
3
 10
5827.863
 20
-8273.814
 30
-658.423
 70
    32
  0
VERTEX
  8
T59SSILL
 62
3
 10
5942.000
 20
-8430.000
 30
-659.428
 70
    32
  0
VERTEX
  8
T59SSILL
 62
3
 10
5958.000
 20
-8440.000
 30
-659.500
 70
    32
  0
VERTEX
  8
T59SSILL
 62
3
 10
5967.000
 20
-8442.000
 30
-659.519
 70
    32
  0
VERTEX
  8
T59SSILL
 62
3
 10
5923.000
 20
-8474.000
 30
-659.666
 70
    32
  0
VERTEX
  8
T59SSILL
 62
3
 10
5914.000
 20
-8474.000
 30
-659.659
 70
    32
  0
VERTEX
  8
T59SSILL
 62
3
 10
5903.000
 20
-8471.000
 30
-659.632
 70
    32
  0
VERTEX
  8
T59SSILL
 62
3
 10
5893.000
 20
-8464.000
 30
-659.582
 70
    32
  0
VERTEX
  8
T59SSILL
 62
3
 10
5885.000
 20
-8452.000
 30
-659.506
 70
    32
  0
VERTEX
  8
T59SSILL
 62
3
 10
5896.000
 20
-8445.000
 30
-659.475
 70
    32
  0
VERTEX
  8
T59SSILL
 62
3
 10
5887.000
 20
-8430.000
 30
-659.380
 70
    32
  0
VERTEX
  8
T59SSILL
 62
3
 10
5867.000
 20
-8443.000
 30
-659.438
 70
    32
  0
VERTEX
  8
T59SSILL
 62
3
 10
5888.000
 20
-8474.000
 30
-659.636
 70
    32
  0
VERTEX
  8
T59SSILL
 62
3
 10
5889.171
 20
-8502.781
 30
-659.804
 70
    32
  0
VERTEX
  8
T59SSILL
 62
3
 10
5652.401
 20
-8672.236
 30
-660.580
 70
    32
  0
VERTEX
  8
T59SSILL
 62
3
 10
5645.465
 20
-8662.210
 30
-660.516
 70
    32
  0
VERTEX
  8
T59SSILL
 62
3
 10
5636.877
 20
-8667.453
 30
-660.539
 70
    32
  0
VERTEX
  8
T59SSILL
 62
3
 10
5644.210
 20
-8678.361
 30
-660.609
 70
    32
  0
VERTEX
  8
T59SSILL
 62
3
 10
5631.139
 20
-8687.786
 30
-660.652
 70
    32
  0
VERTEX
  8
T59SSILL
 62
3
 10
5619.184
 20
-8671.443
 30
-660.547
 70
    32
  0
VERTEX
  8
T59SSILL
 62
3
 10
5610.779
 20
-8676.575
 30
-660.569
 70
    32
  0
VERTEX
  8
T59SSILL
 62
3
 10
5622.389
 20
-8693.850
 30
-660.680
 70
    32
  0
VERTEX
  8
T59SSILL
 62
3
 10
5614.476
 20
-8699.591
 30
-660.706
 70
    32
  0
VERTEX
  8
T59SSILL
 62
3
 10
5608.898
 20
-8697.193
 30
-660.687
 70
    32
  0
VERTEX
  8
T59SSILL
 62
3
 10
5601.359
 20
-8704.675
 30
-660.724
 70
    32
  0
VERTEX
  8
T59SSILL
 62
3
 10
5603.241
 20
-8707.645
 30
-660.743
 70
    32
  0
VERTEX
  8
T59SSILL
 62
3
 10
5536.351
 20
-8755.639
 30
-660.963
 70
    32
  0
VERTEX
  8
T59SSILL
 62
3
 10
5530.352
 20
-8748.306
 30
-660.915
 70
    32
  0
VERTEX
  8
T59SSILL
 62
3
 10
5522.652
 20
-8752.247
 30
-660.932
 70
    32
  0
VERTEX
  8
T59SSILL
 62
3
 10
5518.689
 20
-8755.315
 30
-660.946
 70
    32
  0
VERTEX
  8
T59SSILL
 62
3
 10
5520.661
 20
-8766.516
 30
-661.013
 70
    32
  0
VERTEX
  8
T59SSILL
 62
3
 10
4890.449
 20
-9217.839
 30
-661.861
 70
    32
  0
VERTEX
  8
T59SSILL
 62
3
 10
4421.712
 20
-9557.552
 30
-661.908
 70
    32
  0
VERTEX
  8
T59SSILL
 62
3
 10
4408.117
 20
-9561.924
 30
-661.890
 70
    32
  0
VERTEX
  8
T59SSILL
 62
3
 10
4393.396
 20
-9562.037
 30
-661.872
 70
    32
  0
VERTEX
  8
T59SSILL
 62
3
 10
4377.575
 20
-9555.296
 30
-661.856
 70
    32
  0
VERTEX
  8
T59SSILL
 62
3
 10
4364.124
 20
-9542.839
 30
-661.845
 70
    32
  0
VERTEX
  8
T59SSILL
 62
3
 10
4180.014
 20
-9283.283
 30
-661.165
 70
    32
  0
VERTEX
  8
T59SSILL
 62
3
 10
4180.398
 20
-9271.757
 30
-661.128
 70
    32
  0
VERTEX
  8
T59SSILL
 62
3
 10
4176.929
 20
-9265.043
 30
-661.103
 70
    32
  0
VERTEX
  8
T59SSILL
 62
3
 10
4172.389
 20
-9260.036
 30
-661.081
 70
    32
  0
VERTEX
  8
T59SSILL
 62
3
 10
4162.609
 20
-9258.765
 30
-661.065
 70
    32
  0
VERTEX
  8
T59SSILL
 62
3
 10
4132.007
 20
-9220.959
 30
-660.906
 70
    32
  0
VERTEX
  8
T59SSILL
 62
3
 10
4049.981
 20
-9105.275
 30
-660.434
 70
    32
  0
VERTEX
  8
T59SSILL
 62
3
 10
4047.566
 20
-9095.759
 30
-660.401
 70
    32
  0
VERTEX
  8
T59SSILL
 62
3
 10
4048.727
 20
-9088.246
 30
-660.378
 70
    32
  0
VERTEX
  8
T59SSILL
 62
3
 10
4053.750
 20
-9078.108
 30
-660.352
 70
    32
  0
VERTEX
  8
T59SSILL
 62
3
 10
4057.836
 20
-9073.814
 30
-660.343
 70
    32
  0
VERTEX
  8
T59SSILL
 62
3
 10
4187.599
 20
-8981.251
 30
-660.205
 70
    32
  0
VERTEX
  8
T59SSILL
 62
3
 10
4183.117
 20
-8975.679
 30
-660.181
 70
    32
  0
VERTEX
  8
T59SSILL
 62
3
 10
4054.535
 20
-9067.623
 30
-660.319
 70
    32
  0
VERTEX
  8
T59SSILL
 62
3
 10
4044.322
 20
-9079.274
 30
-660.344
 70
    32
  0
VERTEX
  8
T59SSILL
 62
3
 10
4041.594
 20
-9086.708
 30
-660.364
 70
    32
  0
VERTEX
  8
T59SSILL
 62
3
 10
4041.165
 20
-9093.272
 30
-660.385
 70
    32
  0
VERTEX
  8
T59SSILL
 62
3
 10
4024.156
 20
-9069.688
 30
-660.288
 70
    32
  0
VERTEX
  8
T59SSILL
 62
3
 10
4020.344
 20
-9060.944
 30
-660.256
 70
    32
  0
VERTEX
  8
T59SSILL
 62
3
 10
4020.257
 20
-9050.752
 30
-660.223
 70
    32
  0
VERTEX
  8
T59SSILL
 62
3
 10
4025.665
 20
-9039.479
 30
-660.193
 70
    32
  0
VERTEX
  8
T59SSILL
 62
3
 10
4030.791
 20
-9033.909
 30
-660.182
 70
    32
  0
VERTEX
  8
T59SSILL
 62
3
 10
4055.246
 20
-9016.607
 30
-660.156
 70
    32
  0
VERTEX
  8
T59SSILL
 62
3
 10
4060.144
 20
-9023.071
 30
-660.183
 70
    32
  0
VERTEX
  8
T59SSILL
 62
3
 10
4079.936
 20
-9008.636
 30
-660.161
 70
    32
  0
VERTEX
  8
T59SSILL
 62
3
 10
4075.734
 20
-9002.544
 30
-660.136
 70
    32
  0
VERTEX
  8
T59SSILL
 62
3
 10
4126.989
 20
-8966.064
 30
-660.082
 70
    32
  0
VERTEX
  8
T59SSILL
 62
3
 10
4122.055
 20
-8960.921
 30
-660.059
 70
    32
  0
VERTEX
  8
T59SSILL
 62
3
 10
4062.612
 20
-9002.761
 30
-660.121
 70
    32
  0
VERTEX
  8
T59SSILL
 62
3
 10
4056.460
 20
-8995.133
 30
-660.089
 70
    32
  0
VERTEX
  8
T59SSILL
 62
3
 10
4051.597
 20
-8985.514
 30
-660.052
 70
    32
  0
VERTEX
  8
T59SSILL
 62
3
 10
4045.390
 20
-8962.706
 30
-659.971
 70
    32
  0
VERTEX
  8
T59SSILL
 62
3
 10
4037.609
 20
-8952.776
 30
-659.929
 70
    32
  0
VERTEX
  8
T59SSILL
 62
3
 10
4039.497
 20
-8936.222
 30
-659.879
 70
    32
  0
VERTEX
  8
T59SSILL
 62
3
 10
4036.303
 20
-8931.250
 30
-659.859
 70
    32
  0
VERTEX
  8
T59SSILL
 62
3
 10
4034.794
 20
-8929.728
 30
-659.852
 70
    32
  0
VERTEX
  8
T59SSILL
 62
3
 10
4031.894
 20
-8930.053
 30
-659.850
 70
    32
  0
VERTEX
  8
T59SSILL
 62
3
 10
4024.452
 20
-8935.857
 30
-659.859
 70
    32
  0
VERTEX
  8
T59SSILL
 62
3
 10
4014.497
 20
-8940.094
 30
-659.860
 70
    32
  0
VERTEX
  8
T59SSILL
 62
3
 10
4010.166
 20
-8944.346
 30
-659.869
 70
    32
  0
VERTEX
  8
T59SSILL
 62
3
 10
4012.893
 20
-8952.778
 30
-659.899
 70
    32
  0
VERTEX
  8
T59SSILL
 62
3
 10
4021.978
 20
-8962.109
 30
-659.940
 70
    32
  0
VERTEX
  8
T59SSILL
 62
3
 10
4018.865
 20
-8973.269
 30
-659.972
 70
    32
  0
VERTEX
  8
T59SSILL
 62
3
 10
4034.033
 20
-8989.521
 30
-660.043
 70
    32
  0
VERTEX
  8
T59SSILL
 62
3
 10
4045.740
 20
-8996.457
 30
-660.080
 70
    32
  0
VERTEX
  8
T59SSILL
 62
3
 10
4054.814
 20
-9008.062
 30
-660.128
 70
    32
  0
VERTEX
  8
T59SSILL
 62
3
 10
4021.090
 20
-9034.081
 30
-660.170
 70
    32
  0
VERTEX
  8
T59SSILL
 62
3
 10
4014.882
 20
-9045.596
 30
-660.200
 70
    32
  0
VERTEX
  8
T59SSILL
 62
3
 10
4013.215
 20
-9054.223
 30
-660.225
 70
    32
  0
VERTEX
  8
T59SSILL
 62
3
 10
3924.137
 20
-8928.471
 30
-659.713
 70
    32
  0
VERTEX
  8
T59SSILL
 62
3
 10
3919.669
 20
-8919.867
 30
-659.679
 70
    32
  0
VERTEX
  8
T59SSILL
 62
3
 10
3917.737
 20
-8907.526
 30
-659.637
 70
    32
  0
VERTEX
  8
T59SSILL
 62
3
 10
3920.423
 20
-8888.897
 30
-659.581
 70
    32
  0
VERTEX
  8
T59SSILL
 62
3
 10
3923.740
 20
-8882.448
 30
-659.564
 70
    32
  0
VERTEX
  8
T59SSILL
 62
3
 10
3933.213
 20
-8871.429
 30
-659.541
 70
    32
  0
VERTEX
  8
T59SSILL
 62
3
 10
4028.285
 20
-8803.518
 30
-659.439
 70
    32
  0
VERTEX
  8
T59SSILL
 62
3
 10
4035.769
 20
-8813.333
 30
-659.480
 70
    32
  0
VERTEX
  8
T59SSILL
 62
3
 10
4044.185
 20
-8807.379
 30
-659.471
 70
    32
  0
VERTEX
  8
T59SSILL
 62
3
 10
4036.416
 20
-8797.009
 30
-659.428
 70
    32
  0
VERTEX
  8
T59SSILL
 62
3
 10
4047.655
 20
-8789.706
 30
-659.438
 70
    32
  0
VERTEX
  8
T59SSILL
 62
3
 10
4053.070
 20
-8797.207
 30
-659.454
 70
    32
  0
VERTEX
  8
T59SSILL
 62
3
 10
4059.175
 20
-8792.564
 30
-659.466
 70
    32
  0
VERTEX
  8
T59SSILL
 62
3
 10
4064.495
 20
-8793.981
 30
-659.480
 70
    32
  0
VERTEX
  8
T59SSILL
 62
3
 10
4071.163
 20
-8789.371
 30
-659.493
 70
    32
  0
VERTEX
  8
T59SSILL
 62
3
 10
4070.633
 20
-8784.350
 30
-659.490
 70
    32
  0
VERTEX
  8
T59SSILL
 62
3
 10
4075.854
 20
-8780.440
 30
-659.501
 70
    32
  0
VERTEX
  8
T59SSILL
 62
3
 10
4070.951
 20
-8772.900
 30
-659.487
 70
    32
  0
VERTEX
  8
T59SSILL
 62
3
 10
4085.244
 20
-8762.896
 30
-659.517
 70
    32
  0
VERTEX
  8
T59SSILL
 62
3
 10
4080.178
 20
-8757.413
 30
-659.502
 70
    32
  0
VERTEX
  8
T59SSILL
 62
3
 10
3925.944
 20
-8868.477
 30
-659.522
 70
    32
  0
VERTEX
  8
T59SSILL
 62
3
 10
3919.876
 20
-8876.224
 30
-659.540
 70
    32
  0
VERTEX
  8
T59SSILL
 62
3
 10
3913.584
 20
-8888.231
 30
-659.570
 70
    32
  0
VERTEX
  8
T59SSILL
 62
3
 10
3910.708
 20
-8899.116
 30
-659.602
 70
    32
  0
VERTEX
  8
T59SSILL
 62
3
 10
3911.085
 20
-8910.938
 30
-659.640
 70
    32
  0
VERTEX
  8
T59SSILL
 62
3
 10
3850.277
 20
-8826.059
 30
-659.293
 70
    32
  0
VERTEX
  8
T59SSILL
 62
3
 10
3854.254
 20
-8823.137
 30
-659.289
 70
    32
  0
VERTEX
  8
T59SSILL
 62
3
 10
3849.797
 20
-8816.685
 30
-659.263
 70
    32
  0
VERTEX
  8
T59SSILL
 62
3
 10
3845.607
 20
-8819.001
 30
-659.265
 70
    32
  0
VERTEX
  8
T59SSILL
 62
3
 10
3773.704
 20
-8716.608
 30
-658.848
 70
    32
  0
VERTEX
  8
T59SSILL
 62
3
 10
3772.335
 20
-8711.316
 30
-658.829
 70
    32
  0
VERTEX
  8
T59SSILL
 62
3
 10
3772.893
 20
-8703.258
 30
-658.804
 70
    32
  0
VERTEX
  8
T59SSILL
 62
3
 10
3777.375
 20
-8692.964
 30
-658.777
 70
    32
  0
VERTEX
  8
T59SSILL
 62
3
 10
3782.336
 20
-8687.619
 30
-658.773
 70
    32
  0
VERTEX
  8
T59SSILL
 62
3
 10
3798.643
 20
-8676.190
 30
-658.807
 70
    32
  0
VERTEX
  8
T59SSILL
 62
3
 10
3800.862
 20
-8676.886
 30
-658.812
 70
    32
  0
VERTEX
  8
T59SSILL
 62
3
 10
3811.292
 20
-8669.507
 30
-658.834
 70
    32
  0
VERTEX
  8
T59SSILL
 62
3
 10
3810.688
 20
-8667.128
 30
-658.832
 70
    32
  0
VERTEX
  8
T59SSILL
 62
3
 10
3923.730
 20
-8586.935
 30
-658.583
 70
    32
  0
VERTEX
  8
T59SSILL
 62
3
 10
3939.404
 20
-8593.223
 30
-658.633
 70
    32
  0
VERTEX
  8
T59SSILL
 62
3
 10
3940.140
 20
-8600.365
 30
-658.675
 70
    32
  0
VERTEX
  8
T59SSILL
 62
3
 10
3952.438
 20
-8610.121
 30
-658.742
 70
    32
  0
VERTEX
  8
T59SSILL
 62
3
 10
3958.318
 20
-8612.329
 30
-658.760
 70
    32
  0
VERTEX
  8
T59SSILL
 62
3
 10
3966.047
 20
-8601.896
 30
-658.706
 70
    32
  0
VERTEX
  8
T59SSILL
 62
3
 10
4067.000
 20
-8639.000
 30
-659.009
 70
    32
  0
VERTEX
  8
T59SSILL
 62
3
 10
4069.000
 20
-8645.000
 30
-659.046
 70
    32
  0
VERTEX
  8
T59SSILL
 62
3
 10
4081.000
 20
-8655.000
 30
-659.114
 70
    32
  0
VERTEX
  8
T59SSILL
 62
3
 10
4088.000
 20
-8655.000
 30
-659.120
 70
    32
  0
VERTEX
  8
T59SSILL
 62
3
 10
4094.000
 20
-8648.000
 30
-659.085
 70
    32
  0
VERTEX
  8
T59SSILL
 62
3
 10
4113.000
 20
-8655.000
 30
-659.142
 70
    32
  0
VERTEX
  8
T59SSILL
 62
3
 10
4116.482
 20
-8649.175
 30
-659.111
 70
    32
  0
VERTEX
  8
T59SSILL
 62
3
 10
3859.436
 20
-8555.251
 30
-658.343
 70
    32
  0
VERTEX
  8
T59SSILL
 62
3
 10
3861.321
 20
-8552.730
 30
-658.330
 70
    32
  0
VERTEX
  8
T59SSILL
 62
3
 10
3854.969
 20
-8548.481
 30
-658.300
 70
    32
  0
VERTEX
  8
T59SSILL
 62
3
 10
3851.375
 20
-8552.859
 30
-658.322
 70
    32
  0
VERTEX
  8
T59SSILL
 62
3
 10
3847.008
 20
-8551.415
 30
-658.310
 70
    32
  0
VERTEX
  8
T59SSILL
 62
3
 10
3796.130
 20
-8560.968
 30
-658.321
 70
    32
  0
VERTEX
  8
T59SSILL
 62
3
 10
3830.584
 20
-8536.592
 30
-658.210
 70
    32
  0
VERTEX
  8
T59SSILL
 62
3
 10
3857.196
 20
-8531.795
 30
-658.205
 70
    32
  0
VERTEX
  8
T59SSILL
 62
3
 10
3859.054
 20
-8535.337
 30
-658.227
 70
    32
  0
VERTEX
  8
T59SSILL
 62
3
 10
3872.158
 20
-8534.485
 30
-658.234
 70
    32
  0
VERTEX
  8
T59SSILL
 62
3
 10
3883.633
 20
-8538.347
 30
-658.266
 70
    32
  0
VERTEX
  8
T59SSILL
 62
3
 10
3899.319
 20
-8539.770
 30
-658.288
 70
    32
  0
VERTEX
  8
T59SSILL
 62
3
 10
3909.829
 20
-8532.657
 30
-658.256
 70
    32
  0
VERTEX
  8
T59SSILL
 62
3
 10
3906.606
 20
-8520.474
 30
-658.183
 70
    32
  0
VERTEX
  8
T59SSILL
 62
3
 10
3890.640
 20
-8517.739
 30
-658.153
 70
    32
  0
VERTEX
  8
T59SSILL
 62
3
 10
3889.580
 20
-8496.255
 30
-658.027
 70
    32
  0
VERTEX
  8
T59SSILL
 62
3
 10
3910.575
 20
-8480.476
 30
-657.954
 70
    32
  0
VERTEX
  8
T59SSILL
 62
3
 10
3903.769
 20
-8472.503
 30
-657.902
 70
    32
  0
VERTEX
  8
T59SSILL
 62
3
 10
3877.629
 20
-8491.111
 30
-657.987
 70
    32
  0
VERTEX
  8
T59SSILL
 62
3
 10
3858.056
 20
-8481.753
 30
-657.916
 70
    32
  0
VERTEX
  8
T59SSILL
 62
3
 10
3819.168
 20
-8496.962
 30
-657.970
 70
    32
  0
VERTEX
  8
T59SSILL
 62
3
 10
3795.778
 20
-8498.076
 30
-657.956
 70
    32
  0
VERTEX
  8
T59SSILL
 62
3
 10
3791.568
 20
-8500.515
 30
-657.967
 70
    32
  0
VERTEX
  8
T59SSILL
 62
3
 10
3780.586
 20
-8514.437
 30
-658.038
 70
    32
  0
VERTEX
  8
T59SSILL
 62
3
 10
3771.976
 20
-8520.421
 30
-658.065
 70
    32
  0
VERTEX
  8
T59SSILL
 62
3
 10
3775.945
 20
-8526.031
 30
-658.101
 70
    32
  0
VERTEX
  8
T59SSILL
 62
3
 10
3814.825
 20
-8521.945
 30
-658.111
 70
    32
  0
VERTEX
  8
T59SSILL
 62
3
 10
3819.121
 20
-8527.865
 30
-658.149
 70
    32
  0
VERTEX
  8
T59SSILL
 62
3
 10
3819.060
 20
-8534.491
 30
-658.188
 70
    32
  0
VERTEX
  8
T59SSILL
 62
3
 10
3720.181
 20
-8606.175
 30
-658.517
 70
    32
  0
VERTEX
  8
T59SSILL
 62
3
 10
3712.164
 20
-8616.812
 30
-658.572
 70
    32
  0
VERTEX
  8
T59SSILL
 62
3
 10
3709.336
 20
-8628.527
 30
-658.578
 70
    32
  0
VERTEX
  8
T59SSILL
 62
3
 10
3687.297
 20
-8598.140
 30
-658.442
 70
    32
  0
VERTEX
  8
T59SSILL
 62
3
 10
3686.548
 20
-8582.588
 30
-658.351
 70
    32
  0
VERTEX
  8
T59SSILL
 62
3
 10
3712.738
 20
-8500.918
 30
-657.901
 70
    32
  0
VERTEX
  8
T59SSILL
 62
3
 10
3718.824
 20
-8502.656
 30
-657.916
 70
    32
  0
VERTEX
  8
T59SSILL
 62
3
 10
3722.530
 20
-8491.723
 30
-657.856
 70
    32
  0
VERTEX
  8
T59SSILL
 62
3
 10
3716.252
 20
-8489.257
 30
-657.836
 70
    32
  0
VERTEX
  8
T59SSILL
 62
3
 10
3738.000
 20
-8421.079
 30
-657.644
 70
    32
  0
VERTEX
  8
T59SSILL
 62
3
 10
3729.829
 20
-8419.309
 30
-657.635
 70
    32
  0
VERTEX
  8
T59SSILL
 62
3
 10
3682.142
 20
-8569.191
 30
-658.270
 70
    32
  0
VERTEX
  8
T59SSILL
 62
3
 10
3676.614
 20
-8554.970
 30
-658.183
 70
    32
  0
VERTEX
  8
T59SSILL
 62
3
 10
3672.981
 20
-8535.953
 30
-658.069
 70
    32
  0
VERTEX
  8
T59SSILL
 62
3
 10
3673.210
 20
-8523.919
 30
-658.000
 70
    32
  0
VERTEX
  8
T59SSILL
 62
3
 10
3667.837
 20
-8516.172
 30
-657.950
 70
    32
  0
VERTEX
  8
T59SSILL
 62
3
 10
3647.028
 20
-8426.657
 30
-657.611
 70
    32
  0
VERTEX
  8
T59SSILL
 62
3
 10
3639.722
 20
-8427.909
 30
-657.610
 70
    32
  0
VERTEX
  8
T59SSILL
 62
3
 10
3659.179
 20
-8509.885
 30
-657.906
 70
    32
  0
VERTEX
  8
T59SSILL
 62
3
 10
3657.523
 20
-8513.647
 30
-657.927
 70
    32
  0
VERTEX
  8
T59SSILL
 62
3
 10
3651.967
 20
-8516.930
 30
-657.941
 70
    32
  0
VERTEX
  8
T59SSILL
 62
3
 10
3653.671
 20
-8522.848
 30
-657.977
 70
    32
  0
VERTEX
  8
T59SSILL
 62
3
 10
3646.498
 20
-8525.980
 30
-657.988
 70
    32
  0
VERTEX
  8
T59SSILL
 62
3
 10
3640.336
 20
-8513.610
 30
-657.911
 70
    32
  0
VERTEX
  8
T59SSILL
 62
3
 10
3634.014
 20
-8505.131
 30
-657.857
 70
    32
  0
VERTEX
  8
T59SSILL
 62
3
 10
3629.615
 20
-8501.660
 30
-657.833
 70
    32
  0
VERTEX
  8
T59SSILL
 62
3
 10
3622.497
 20
-8505.940
 30
-657.851
 70
    32
  0
VERTEX
  8
T59SSILL
 62
3
 10
3611.824
 20
-8492.228
 30
-657.776
 70
    32
  0
VERTEX
  8
T59SSILL
 62
3
 10
3615.679
 20
-8489.285
 30
-657.769
 70
    32
  0
VERTEX
  8
T59SSILL
 62
3
 10
3611.587
 20
-8483.654
 30
-657.751
 70
    32
  0
VERTEX
  8
T59SSILL
 62
3
 10
3607.855
 20
-8486.617
 30
-657.758
 70
    32
  0
VERTEX
  8
T59SSILL
 62
3
 10
3601.015
 20
-8477.102
 30
-657.727
 70
    32
  0
VERTEX
  8
T59SSILL
 62
3
 10
3605.301
 20
-8473.854
 30
-657.720
 70
    32
  0
VERTEX
  8
T59SSILL
 62
3
 10
3600.475
 20
-8467.338
 30
-657.700
 70
    32
  0
VERTEX
  8
T59SSILL
 62
3
 10
3596.375
 20
-8470.239
 30
-657.705
 70
    32
  0
VERTEX
  8
T59SSILL
 62
3
 10
3512.316
 20
-8353.564
 30
-657.333
 70
    32
  0
VERTEX
  8
T59SSILL
 62
3
 10
3506.050
 20
-8357.673
 30
-657.341
 70
    32
  0
VERTEX
  8
T59SSILL
 62
3
 10
3555.018
 20
-8426.428
 30
-657.560
 70
    32
  0
VERTEX
  8
T59SSILL
 62
3
 10
3546.834
 20
-8439.881
 30
-657.593
 70
    32
  0
VERTEX
  8
T59SSILL
 62
3
 10
3560.202
 20
-8455.572
 30
-657.645
 70
    32
  0
VERTEX
  8
T59SSILL
 62
3
 10
3570.725
 20
-8448.019
 30
-657.629
 70
    32
  0
VERTEX
  8
T59SSILL
 62
3
 10
3664.669
 20
-8579.672
 30
-658.316
 70
    32
  0
VERTEX
  8
T59SSILL
 62
3
 10
3149.576
 20
-8474.726
 30
-657.710
 70
    32
  0
VERTEX
  8
T59SSILL
 62
3
 10
3133.622
 20
-8457.333
 30
-657.674
 70
    32
  0
VERTEX
  8
T59SSILL
 62
3
 10
3054.194
 20
-8347.571
 30
-657.438
 70
    32
  0
VERTEX
  8
T59SSILL
 62
3
 10
3053.042
 20
-8344.526
 30
-657.430
 70
    32
  0
VERTEX
  8
T59SSILL
 62
3
 10
3060.028
 20
-8330.068
 30
-657.384
 70
    32
  0
VERTEX
  8
T59SSILL
 62
3
 10
3051.854
 20
-8307.426
 30
-657.326
 70
    32
  0
VERTEX
  8
T59SSILL
 62
3
 10
3041.059
 20
-8294.340
 30
-657.296
 70
    32
  0
VERTEX
  8
T59SSILL
 62
3
 10
3014.073
 20
-8284.675
 30
-657.286
 70
    32
  0
VERTEX
  8
T59SSILL
 62
3
 10
3001.608
 20
-8274.788
 30
-657.266
 70
    32
  0
VERTEX
  8
T59SSILL
 62
3
 10
2962.342
 20
-8218.560
 30
-657.133
 70
    32
  0
VERTEX
  8
T59SSILL
 62
3
 10
2964.844
 20
-8212.943
 30
-657.116
 70
    32
  0
VERTEX
  8
T59SSILL
 62
3
 10
2974.953
 20
-8204.922
 30
-657.087
 70
    32
  0
VERTEX
  8
T59SSILL
 62
3
 10
2970.608
 20
-8198.869
 30
-657.072
 70
    32
  0
VERTEX
  8
T59SSILL
 62
3
 10
2957.094
 20
-8204.748
 30
-657.098
 70
    32
  0
VERTEX
  8
T59SSILL
 62
3
 10
2944.859
 20
-8197.602
 30
-657.086
 70
    32
  0
VERTEX
  8
T59SSILL
 62
3
 10
2921.519
 20
-8164.540
 30
-657.008
 70
    32
  0
VERTEX
  8
T59SSILL
 62
3
 10
2921.519
 20
-8164.540
 30
-654.279
 70
    32
  0
VERTEX
  8
T59SSILL
 62
3
 10
2923.578
 20
-8157.850
 30
-655.217
 70
    32
  0
VERTEX
  8
T59SSILL
 62
3
 10
2927.792
 20
-8158.277
 30
-655.483
 70
    32
  0
VERTEX
  8
T59SSILL
 62
3
 10
2941.365
 20
-8162.837
 30
-653.897
 70
    32
  0
VERTEX
  8
T59SSILL
 62
3
 10
2952.503
 20
-8171.304
 30
-650.563
 70
    32
  0
VERTEX
  8
T59SSILL
 62
3
 10
2958.109
 20
-8173.256
 30
-649.764
 70
    32
  0
VERTEX
  8
T59SSILL
 62
3
 10
2968.883
 20
-8180.816
 30
-648.403
 70
    32
  0
VERTEX
  8
T59SSILL
 62
3
 10
2975.473
 20
-8176.437
 30
-647.291
 70
    32
  0
VERTEX
  8
T59SSILL
 62
3
 10
2979.991
 20
-8177.233
 30
-646.754
 70
    32
  0
VERTEX
  8
T59SSILL
 62
3
 10
2989.453
 20
-8183.630
 30
-646.534
 70
    32
  0
VERTEX
  8
T59SSILL
 62
3
 10
2993.711
 20
-8188.363
 30
-646.653
 70
    32
  0
VERTEX
  8
T59SSILL
 62
3
 10
3004.936
 20
-8201.214
 30
-646.625
 70
    32
  0
VERTEX
  8
T59SSILL
 62
3
 10
3009.204
 20
-8192.171
 30
-646.625
 70
    32
  0
VERTEX
  8
T59SSILL
 62
3
 10
3004.468
 20
-8188.277
 30
-646.837
 70
    32
  0
VERTEX
  8
T59SSILL
 62
3
 10
3004.781
 20
-8188.981
 30
-646.878
 70
    32
  0
VERTEX
  8
T59SSILL
 62
3
 10
3002.616
 20
-8182.259
 30
-646.670
 70
    32
  0
VERTEX
  8
T59SSILL
 62
3
 10
2997.458
 20
-8176.652
 30
-646.408
 70
    32
  0
VERTEX
  8
T59SSILL
 62
3
 10
2997.497
 20
-8170.219
 30
-646.906
 70
    32
  0
VERTEX
  8
T59SSILL
 62
3
 10
2993.650
 20
-8160.098
 30
-646.828
 70
    32
  0
VERTEX
  8
T59SSILL
 62
3
 10
2986.273
 20
-8155.894
 30
-647.619
 70
    32
  0
VERTEX
  8
T59SSILL
 62
3
 10
2963.347
 20
-8161.757
 30
-649.869
 70
    32
  0
VERTEX
  8
T59SSILL
 62
3
 10
2959.108
 20
-8161.403
 30
-650.600
 70
    32
  0
VERTEX
  8
T59SSILL
 62
3
 10
2952.430
 20
-8157.518
 30
-651.400
 70
    32
  0
VERTEX
  8
T59SSILL
 62
3
 10
2943.395
 20
-8151.536
 30
-654.834
 70
    32
  0
VERTEX
  8
T59SSILL
 62
3
 10
2933.533
 20
-8148.640
 30
-655.226
 70
    32
  0
VERTEX
  8
T59SSILL
 62
3
 10
2921.471
 20
-8145.067
 30
-654.133
 70
    32
  0
VERTEX
  8
T59SSILL
 62
3
 10
2916.352
 20
-8141.090
 30
-654.352
 70
    32
  0
VERTEX
  8
T59SSILL
 62
3
 10
2905.439
 20
-8141.355
 30
-661.176
 70
    32
  0
VERTEX
  8
T59SSILL
 62
3
 10
2905.603
 20
-8141.466
 30
-654.053
 70
    32
  0
VERTEX
  8
T59SSILL
 62
3
 10
2850.298
 20
-8062.179
 30
-656.765
 70
    32
  0
VERTEX
  8
T59SSILL
 62
3
 10
2849.587
 20
-8054.857
 30
-656.745
 70
    32
  0
VERTEX
  8
T59SSILL
 62
3
 10
2868.038
 20
-8041.694
 30
-656.295
 70
    32
  0
VERTEX
  8
T59SSILL
 62
3
 10
2862.207
 20
-8033.570
 30
-656.231
 70
    32
  0
VERTEX
  8
T59SSILL
 62
3
 10
2844.520
 20
-8046.188
 30
-656.724
 70
    32
  0
VERTEX
  8
T59SSILL
 62
3
 10
2838.950
 20
-8045.919
 30
-656.726
 70
    32
  0
VERTEX
  8
T59SSILL
 62
3
 10
2791.697
 20
-7979.682
 30
-656.297
 70
    32
  0
VERTEX
  8
T59SSILL
 62
3
 10
2791.433
 20
-7970.615
 30
-656.129
 70
    32
  0
VERTEX
  8
T59SSILL
 62
3
 10
2786.448
 20
-7962.012
 30
-656.042
 70
    32
  0
VERTEX
  8
T59SSILL
 62
3
 10
2775.969
 20
-7949.070
 30
-655.958
 70
    32
  0
VERTEX
  8
T59SSILL
 62
3
 10
2765.139
 20
-7942.454
 30
-656.000
 70
    32
  0
VERTEX
  8
T59SSILL
 62
3
 10
2671.483
 20
-7811.171
 30
-655.421
 70
    32
  0
VERTEX
  8
T59SSILL
 62
3
 10
2681.691
 20
-7802.303
 30
-655.412
 70
    32
  0
VERTEX
  8
T59SSILL
 62
3
 10
2679.104
 20
-7798.161
 30
-655.403
 70
    32
  0
VERTEX
  8
T59SSILL
 62
3
 10
2675.366
 20
-7792.952
 30
-655.392
 70
    32
  0
VERTEX
  8
T59SSILL
 62
3
 10
2662.116
 20
-7798.041
 30
-655.393
 70
    32
  0
VERTEX
  8
T59SSILL
 62
3
 10
2560.661
 20
-7655.825
 30
-655.551
 70
    32
  0
VERTEX
  8
T59SSILL
 62
3
 10
2576.935
 20
-7643.564
 30
-655.605
 70
    32
  0
VERTEX
  8
T59SSILL
 62
3
 10
2573.307
 20
-7634.585
 30
-655.574
 70
    32
  0
VERTEX
  8
T59SSILL
 62
3
 10
2567.325
 20
-7630.614
 30
-655.545
 70
    32
  0
VERTEX
  8
T59SSILL
 62
3
 10
2551.384
 20
-7643.042
 30
-655.579
 70
    32
  0
VERTEX
  8
T59SSILL
 62
3
 10
2507.798
 20
-7581.725
 30
-655.188
 70
    32
  0
VERTEX
  8
T59SSILL
 62
3
 10
2509.248
 20
-7570.904
 30
-655.105
 70
    32
  0
VERTEX
  8
T59SSILL
 62
3
 10
2498.037
 20
-7556.620
 30
-654.999
 70
    32
  0
VERTEX
  8
T59SSILL
 62
3
 10
2489.037
 20
-7541.978
 30
-654.890
 70
    32
  0
VERTEX
  8
T59SSILL
 62
3
 10
2480.415
 20
-7543.340
 30
-654.903
 70
    32
  0
VERTEX
  8
T59SSILL
 62
3
 10
2257.473
 20
-7230.829
 30
-654.444
 70
    32
  0
VERTEX
  8
T59SSILL
 62
3
 10
2249.332
 20
-7236.637
 30
-654.452
 70
    32
  0
VERTEX
  8
T59SSILL
 62
3
 10
2543.448
 20
-7648.916
 30
-655.585
 70
    32
  0
VERTEX
  8
T59SSILL
 62
3
 10
2527.110
 20
-7660.236
 30
-655.647
 70
    32
  0
VERTEX
  8
T59SSILL
 62
3
 10
2530.379
 20
-7669.353
 30
-655.638
 70
    32
  0
VERTEX
  8
T59SSILL
 62
3
 10
2536.199
 20
-7673.558
 30
-655.619
 70
    32
  0
VERTEX
  8
T59SSILL
 62
3
 10
2552.620
 20
-7661.773
 30
-655.557
 70
    32
  0
VERTEX
  8
T59SSILL
 62
3
 10
2652.683
 20
-7802.037
 30
-655.412
 70
    32
  0
VERTEX
  8
T59SSILL
 62
3
 10
2650.803
 20
-7806.925
 30
-655.435
 70
    32
  0
VERTEX
  8
T59SSILL
 62
3
 10
2642.330
 20
-7814.422
 30
-655.483
 70
    32
  0
VERTEX
  8
T59SSILL
 62
3
 10
2648.704
 20
-7823.303
 30
-655.503
 70
    32
  0
VERTEX
  8
T59SSILL
 62
3
 10
2663.229
 20
-7816.821
 30
-655.445
 70
    32
  0
VERTEX
  8
T59SSILL
 62
3
 10
2773.491
 20
-7971.566
 30
-656.307
 70
    32
  0
VERTEX
  8
T59SSILL
 62
3
 10
2771.406
 20
-7985.323
 30
-656.000
 70
    32
  0
VERTEX
  8
T59SSILL
 62
3
 10
2776.635
 20
-7993.614
 30
-656.000
 70
    32
  0
VERTEX
  8
T59SSILL
 62
3
 10
2785.402
 20
-7988.204
 30
-656.400
 70
    32
  0
VERTEX
  8
T59SSILL
 62
3
 10
2830.717
 20
-8051.597
 30
-656.753
 70
    32
  0
VERTEX
  8
T59SSILL
 62
3
 10
2824.604
 20
-8060.396
 30
-656.793
 70
    32
  0
VERTEX
  8
T59SSILL
 62
3
 10
2814.319
 20
-8067.732
 30
-656.834
 70
    32
  0
VERTEX
  8
T59SSILL
 62
3
 10
2820.127
 20
-8075.873
 30
-656.854
 70
    32
  0
VERTEX
  8
T59SSILL
 62
3
 10
2833.169
 20
-8066.569
 30
-656.801
 70
    32
  0
VERTEX
  8
T59SSILL
 62
3
 10
2840.185
 20
-8064.870
 30
-656.785
 70
    32
  0
VERTEX
  8
T59SSILL
 62
3
 10
2894.696
 20
-8141.155
 30
-656.964
 70
    32
  0
VERTEX
  8
T59SSILL
 62
3
 10
2895.378
 20
-8145.727
 30
-656.979
 70
    32
  0
VERTEX
  8
T59SSILL
 62
3
 10
2893.494
 20
-8150.208
 30
-656.998
 70
    32
  0
VERTEX
  8
T59SSILL
 62
3
 10
2878.183
 20
-8158.393
 30
-657.050
 70
    32
  0
VERTEX
  8
T59SSILL
 62
3
 10
2882.268
 20
-8167.820
 30
-657.076
 70
    32
  0
VERTEX
  8
T59SSILL
 62
3
 10
2886.020
 20
-8167.183
 30
-657.068
 70
    32
  0
VERTEX
  8
T59SSILL
 62
3
 10
2894.699
 20
-8161.425
 30
-657.035
 70
    32
  0
VERTEX
  8
T59SSILL
 62
3
 10
2902.558
 20
-8163.201
 30
-657.029
 70
    32
  0
VERTEX
  8
T59SSILL
 62
3
 10
2910.129
 20
-8170.120
 30
-657.041
 70
    32
  0
VERTEX
  8
T59SSILL
 62
3
 10
2915.853
 20
-8171.782
 30
-657.038
 70
    32
  0
VERTEX
  8
T59SSILL
 62
3
 10
2940.769
 20
-8205.003
 30
-657.114
 70
    32
  0
VERTEX
  8
T59SSILL
 62
3
 10
2937.887
 20
-8220.275
 30
-657.172
 70
    32
  0
VERTEX
  8
T59SSILL
 62
3
 10
2929.696
 20
-8226.731
 30
-657.207
 70
    32
  0
VERTEX
  8
T59SSILL
 62
3
 10
2934.923
 20
-8234.013
 30
-657.224
 70
    32
  0
VERTEX
  8
T59SSILL
 62
3
 10
2948.320
 20
-8226.332
 30
-657.176
 70
    32
  0
VERTEX
  8
T59SSILL
 62
3
 10
2955.913
 20
-8226.232
 30
-657.164
 70
    32
  0
VERTEX
  8
T59SSILL
 62
3
 10
3127.137
 20
-8463.298
 30
-657.693
 70
    32
  0
VERTEX
  8
T59SSILL
 62
3
 10
3125.780
 20
-8469.878
 30
-657.708
 70
    32
  0
VERTEX
  8
T59SSILL
 62
3
 10
2990.903
 20
-8442.398
 30
-657.656
 70
    32
  0
VERTEX
  8
T59SSILL
 62
3
 10
2988.732
 20
-8450.120
 30
-657.673
 70
    32
  0
VERTEX
  8
T59SSILL
 62
3
 10
2999.221
 20
-8457.744
 30
-657.689
 70
    32
  0
VERTEX
  8
T59SSILL
 62
3
 10
3001.518
 20
-8458.069
 30
-657.690
 70
    32
  0
VERTEX
  8
T59SSILL
 62
3
 10
3008.000
 20
-8454.046
 30
-657.681
 70
    32
  0
VERTEX
  8
T59SSILL
 62
3
 10
3053.678
 20
-8463.352
 30
-657.698
 70
    32
  0
VERTEX
  8
T59SSILL
 62
3
 10
3054.682
 20
-8464.294
 30
-653.000
 70
    32
  0
VERTEX
  8
T59SSILL
 62
3
 10
3058.622
 20
-8468.323
 30
-651.000
 70
    32
  0
VERTEX
  8
T59SSILL
 62
3
 10
3059.177
 20
-8478.212
 30
-651.000
 70
    32
  0
VERTEX
  8
T59SSILL
 62
3
 10
3059.005
 20
-8485.952
 30
-651.000
 70
    32
  0
VERTEX
  8
T59SSILL
 62
3
 10
3062.679
 20
-8486.965
 30
-651.000
 70
    32
  0
VERTEX
  8
T59SSILL
 62
3
 10
3069.548
 20
-8486.247
 30
-651.000
 70
    32
  0
VERTEX
  8
T59SSILL
 62
3
 10
3071.424
 20
-8477.904
 30
-651.000
 70
    32
  0
VERTEX
  8
T59SSILL
 62
3
 10
3073.296
 20
-8469.316
 30
-654.000
 70
    32
  0
VERTEX
  8
T59SSILL
 62
3
 10
3073.838
 20
-8467.460
 30
-657.706
 70
    32
  0
VERTEX
  8
T59SSILL
 62
3
 10
3091.956
 20
-8471.151
 30
-657.713
 70
    32
  0
VERTEX
  8
T59SSILL
 62
3
 10
3097.083
 20
-8480.701
 30
-657.726
 70
    32
  0
VERTEX
  8
T59SSILL
 62
3
 10
3106.301
 20
-8482.389
 30
-657.728
 70
    32
  0
VERTEX
  8
T59SSILL
 62
3
 10
3112.206
 20
-8475.277
 30
-657.720
 70
    32
  0
VERTEX
  8
T59SSILL
 62
3
 10
3239.469
 20
-8501.206
 30
-657.731
 70
    32
  0
VERTEX
  8
T59SSILL
 62
3
 10
3248.493
 20
-8510.957
 30
-657.750
 70
    32
  0
VERTEX
  8
T59SSILL
 62
3
 10
3259.170
 20
-8513.259
 30
-657.751
 70
    32
  0
VERTEX
  8
T59SSILL
 62
3
 10
3269.633
 20
-8507.267
 30
-657.733
 70
    32
  0
VERTEX
  8
T59SSILL
 62
3
 10
3361.506
 20
-8526.069
 30
-657.739
 70
    32
  0
VERTEX
  8
T59SSILL
 62
3
 10
3364.587
 20
-8531.493
 30
-657.750
 70
    32
  0
VERTEX
  8
T59SSILL
 62
3
 10
3372.098
 20
-8528.227
 30
-657.751
 70
    32
  0
VERTEX
  8
T59SSILL
 62
3
 10
3667.710
 20
-8588.456
 30
-658.369
 70
    32
  0
VERTEX
  8
T59SSILL
 62
3
 10
3674.044
 20
-8591.003
 30
-658.389
 70
    32
  0
VERTEX
  8
T59SSILL
 62
3
 10
3894.173
 20
-8899.697
 30
-659.583
 70
    32
  0
VERTEX
  8
T59SSILL
 62
3
 10
3883.362
 20
-8898.604
 30
-659.567
 70
    32
  0
VERTEX
  8
T59SSILL
 62
3
 10
3869.846
 20
-8902.230
 30
-659.562
 70
    32
  0
VERTEX
  8
T59SSILL
 62
3
 10
3852.900
 20
-8914.435
 30
-659.580
 70
    32
  0
VERTEX
  8
T59SSILL
 62
3
 10
3844.647
 20
-8913.906
 30
-659.568
 70
    32
  0
VERTEX
  8
T59SSILL
 62
3
 10
3844.137
 20
-8920.203
 30
-659.588
 70
    32
  0
VERTEX
  8
T59SSILL
 62
3
 10
3832.318
 20
-8928.012
 30
-659.599
 70
    32
  0
VERTEX
  8
T59SSILL
 62
3
 10
3839.033
 20
-8934.499
 30
-659.628
 70
    32
  0
VERTEX
  8
T59SSILL
 62
3
 10
3852.916
 20
-8924.678
 30
-659.613
 70
    32
  0
VERTEX
  8
T59SSILL
 62
3
 10
3867.945
 20
-8926.241
 30
-659.637
 70
    32
  0
VERTEX
  8
T59SSILL
 62
3
 10
3870.454
 20
-8912.701
 30
-659.596
 70
    32
  0
VERTEX
  8
T59SSILL
 62
3
 10
3872.726
 20
-8910.878
 30
-659.593
 70
    32
  0
VERTEX
  8
T59SSILL
 62
3
 10
3879.621
 20
-8908.266
 30
-659.593
 70
    32
  0
VERTEX
  8
T59SSILL
 62
3
 10
3892.844
 20
-8908.193
 30
-659.609
 70
    32
  0
VERTEX
  8
T59SSILL
 62
3
 10
3902.284
 20
-8913.602
 30
-659.638
 70
    32
  0
VERTEX
  8
T59SSILL
 62
3
 10
3924.444
 20
-8942.177
 30
-659.757
 70
    32
  0
VERTEX
  8
T59SSILL
 62
3
 10
3915.783
 20
-8941.073
 30
-659.743
 70
    32
  0
VERTEX
  8
T59SSILL
 62
3
 10
3903.625
 20
-8943.415
 30
-659.735
 70
    32
  0
VERTEX
  8
T59SSILL
 62
3
 10
3888.544
 20
-8953.221
 30
-659.748
 70
    32
  0
VERTEX
  8
T59SSILL
 62
3
 10
3881.401
 20
-8949.532
 30
-659.728
 70
    32
  0
VERTEX
  8
T59SSILL
 62
3
 10
3877.823
 20
-8957.137
 30
-659.748
 70
    32
  0
VERTEX
  8
T59SSILL
 62
3
 10
3880.785
 20
-8959.035
 30
-659.758
 70
    32
  0
VERTEX
  8
T59SSILL
 62
3
 10
3818.480
 20
-9001.712
 30
-659.703
 70
    32
  0
VERTEX
  8
T59SSILL
 62
3
 10
3808.787
 20
-8988.926
 30
-659.658
 70
    32
  0
VERTEX
  8
T59SSILL
 62
3
 10
3800.821
 20
-8995.210
 30
-659.639
 70
    32
  0
VERTEX
  8
T59SSILL
 62
3
 10
3808.860
 20
-9009.166
 30
-659.680
 70
    32
  0
VERTEX
  8
T59SSILL
 62
3
 10
3739.961
 20
-9059.423
 30
-659.509
 70
    32
  0
VERTEX
  8
T59SSILL
 62
3
 10
3745.680
 20
-9064.336
 30
-659.532
 70
    32
  0
VERTEX
  8
T59SSILL
 62
3
 10
3811.494
 20
-9017.772
 30
-659.697
 70
    32
  0
VERTEX
  8
T59SSILL
 62
3
 10
3822.402
 20
-9045.241
 30
-659.762
 70
    32
  0
VERTEX
  8
T59SSILL
 62
3
 10
3853.927
 20
-9057.152
 30
-659.877
 70
    32
  0
VERTEX
  8
T59SSILL
 62
3
 10
3886.402
 20
-9035.471
 30
-659.959
 70
    32
  0
VERTEX
  8
T59SSILL
 62
3
 10
3891.994
 20
-9015.000
 30
-659.951
 70
    32
  0
VERTEX
  8
T59SSILL
 62
3
 10
3897.063
 20
-9003.859
 30
-659.921
 70
    32
  0
VERTEX
  8
T59SSILL
 62
3
 10
3903.451
 20
-9002.361
 30
-659.924
 70
    32
  0
VERTEX
  8
T59SSILL
 62
3
 10
3913.931
 20
-9013.512
 30
-659.973
 70
    32
  0
VERTEX
  8
T59SSILL
 62
3
 10
3923.304
 20
-9015.623
 30
-659.991
 70
    32
  0
VERTEX
  8
T59SSILL
 62
3
 10
3926.279
 20
-9014.489
 30
-659.991
 70
    32
  0
VERTEX
  8
T59SSILL
 62
3
 10
3933.825
 20
-8999.220
 30
-659.952
 70
    32
  0
VERTEX
  8
T59SSILL
 62
3
 10
3928.299
 20
-8991.257
 30
-659.919
 70
    32
  0
VERTEX
  8
T59SSILL
 62
3
 10
3919.490
 20
-8993.604
 30
-659.916
 70
    32
  0
VERTEX
  8
T59SSILL
 62
3
 10
3909.150
 20
-8990.126
 30
-659.892
 70
    32
  0
VERTEX
  8
T59SSILL
 62
3
 10
3893.352
 20
-8981.984
 30
-659.847
 70
    32
  0
VERTEX
  8
T59SSILL
 62
3
 10
3898.044
 20
-8970.461
 30
-659.815
 70
    32
  0
VERTEX
  8
T59SSILL
 62
3
 10
3899.331
 20
-8971.061
 30
-659.819
 70
    32
  0
VERTEX
  8
T59SSILL
 62
3
 10
3905.399
 20
-8958.889
 30
-659.787
 70
    32
  0
VERTEX
  8
T59SSILL
 62
3
 10
3898.535
 20
-8954.679
 30
-659.765
 70
    32
  0
VERTEX
  8
T59SSILL
 62
3
 10
3903.549
 20
-8951.240
 30
-659.760
 70
    32
  0
VERTEX
  8
T59SSILL
 62
3
 10
3912.645
 20
-8948.690
 30
-659.763
 70
    32
  0
VERTEX
  8
T59SSILL
 62
3
 10
3923.766
 20
-8949.457
 30
-659.779
 70
    32
  0
VERTEX
  8
T59SSILL
 62
3
 10
3933.790
 20
-8954.777
 30
-659.809
 70
    32
  0
VERTEX
  8
T59SSILL
 62
3
 10
4146.282
 20
-9253.440
 30
-661.028
 70
    32
  0
VERTEX
  8
T59SSILL
 62
3
 10
4254.964
 20
-9403.272
 30
-661.661
 70
    32
  0
VERTEX
  8
T59SSILL
 62
3
 10
4242.653
 20
-9403.026
 30
-661.609
 70
    32
  0
VERTEX
  8
T59SSILL
 62
3
 10
4231.512
 20
-9406.450
 30
-661.568
 70
    32
  0
VERTEX
  8
T59SSILL
 62
3
 10
4159.324
 20
-9457.076
 30
-661.336
 70
    32
  0
VERTEX
  8
T59SSILL
 62
3
 10
4157.121
 20
-9452.810
 30
-661.321
 70
    32
  0
VERTEX
  8
T59SSILL
 62
3
 10
4153.311
 20
-9432.284
 30
-661.276
 70
    32
  0
VERTEX
  8
T59SSILL
 62
3
 10
4151.460
 20
-9429.920
 30
-661.265
 70
    32
  0
VERTEX
  8
T59SSILL
 62
3
 10
4144.015
 20
-9429.390
 30
-661.233
 70
    32
  0
VERTEX
  8
T59SSILL
 62
3
 10
4138.975
 20
-9433.417
 30
-661.217
 70
    32
  0
VERTEX
  8
T59SSILL
 62
3
 10
4138.172
 20
-9442.015
 30
-661.226
 70
    32
  0
VERTEX
  8
T59SSILL
 62
3
 10
4131.431
 20
-9453.654
 30
-661.214
 70
    32
  0
VERTEX
  8
T59SSILL
 62
3
 10
4129.619
 20
-9460.485
 30
-661.216
 70
    32
  0
VERTEX
  8
T59SSILL
 62
3
 10
4133.613
 20
-9476.165
 30
-661.255
 70
    32
  0
VERTEX
  8
T59SSILL
 62
3
 10
4038.222
 20
-9543.928
 30
-660.991
 70
    32
  0
VERTEX
  8
T59SSILL
 62
3
 10
4034.581
 20
-9538.514
 30
-660.974
 70
    32
  0
VERTEX
  8
T59SSILL
 62
3
 10
4014.864
 20
-9552.166
 30
-660.924
 70
    32
  0
VERTEX
  8
T59SSILL
 62
3
 10
4018.784
 20
-9558.138
 30
-660.943
 70
    32
  0
VERTEX
  8
T59SSILL
 62
3
 10
4000.985
 20
-9570.998
 30
-660.899
 70
    32
  0
VERTEX
  8
T59SSILL
 62
3
 10
4006.077
 20
-9575.587
 30
-660.920
 70
    32
  0
VERTEX
  8
T59SSILL
 62
3
 10
4202.578
 20
-9435.599
 30
-661.487
 70
    32
  0
VERTEX
  8
T59SSILL
 62
3
 10
4206.198
 20
-9441.136
 30
-661.510
 70
    32
  0
VERTEX
  8
T59SSILL
 62
3
 10
4214.456
 20
-9435.097
 30
-661.536
 70
    32
  0
VERTEX
  8
T59SSILL
 62
3
 10
4210.234
 20
-9430.084
 30
-661.512
 70
    32
  0
VERTEX
  8
T59SSILL
 62
3
 10
4230.386
 20
-9416.131
 30
-661.576
 70
    32
  0
VERTEX
  8
T59SSILL
 62
3
 10
4240.340
 20
-9410.526
 30
-661.610
 70
    32
  0
VERTEX
  8
T59SSILL
 62
3
 10
4247.817
 20
-9410.174
 30
-661.641
 70
    32
  0
VERTEX
  8
T59SSILL
 62
3
 10
4259.165
 20
-9412.934
 30
-661.693
 70
    32
  0
VERTEX
  8
T59SSILL
 62
3
 10
4267.625
 20
-9419.731
 30
-661.738
 70
    32
  0
VERTEX
  8
T59SSILL
 62
3
 10
4362.190
 20
-9552.436
 30
-661.839
 70
    32
  0
VERTEX
  8
T59SSILL
 62
3
 10
4371.653
 20
-9560.683
 30
-661.847
 70
    32
  0
VERTEX
  8
T59SSILL
 62
3
 10
4383.660
 20
-9567.491
 30
-661.858
 70
    32
  0
VERTEX
  8
T59SSILL
 62
3
 10
4393.853
 20
-9569.977
 30
-661.869
 70
    32
  0
VERTEX
  8
T59SSILL
 62
3
 10
4405.034
 20
-9570.172
 30
-661.883
 70
    32
  0
VERTEX
  8
T59SSILL
 62
3
 10
4384.144
 20
-9585.677
 30
-661.851
 70
    32
  0
VERTEX
  8
T59SSILL
 62
3
 10
4377.495
 20
-9583.880
 30
-661.844
 70
    32
  0
VERTEX
  8
T59SSILL
 62
3
 10
4371.164
 20
-9577.375
 30
-661.839
 70
    32
  0
VERTEX
  8
T59SSILL
 62
3
 10
4367.172
 20
-9581.751
 30
-661.832
 70
    32
  0
VERTEX
  8
T59SSILL
 62
3
 10
4369.907
 20
-9588.352
 30
-661.833
 70
    32
  0
VERTEX
  8
T59SSILL
 62
3
 10
4370.239
 20
-9595.739
 30
-661.830
 70
    32
  0
VERTEX
  8
T59SSILL
 62
3
 10
3413.768
 20
-10287.021
 30
-660.214
 70
    32
  0
VERTEX
  8
T59SSILL
 62
3
 10
3401.825
 20
-10291.322
 30
-660.192
 70
    32
  0
VERTEX
  8
T59SSILL
 62
3
 10
3234.916
 20
-10264.166
 30
-659.780
 70
    32
  0
VERTEX
  8
T59SSILL
 62
3
 10
3236.092
 20
-10258.921
 30
-659.777
 70
    32
  0
VERTEX
  8
T59SSILL
 62
3
 10
3227.354
 20
-10257.907
 30
-659.755
 70
    32
  0
VERTEX
  8
T59SSILL
 62
3
 10
3216.637
 20
-10261.196
 30
-659.735
 70
    32
  0
VERTEX
  8
T59SSILL
 62
3
 10
3202.702
 20
-10253.806
 30
-659.694
 70
    32
  0
VERTEX
  8
T59SSILL
 62
3
 10
3131.092
 20
-10152.407
 30
-659.459
 70
    32
  0
VERTEX
  8
T59SSILL
 62
3
 10
3132.651
 20
-10138.616
 30
-659.445
 70
    32
  0
VERTEX
  8
T59SSILL
 62
3
 10
3121.064
 20
-10120.724
 30
-659.427
 70
    32
  0
VERTEX
  8
T59SSILL
 62
3
 10
3107.544
 20
-10119.210
 30
-659.426
 70
    32
  0
VERTEX
  8
T59SSILL
 62
3
 10
2009.258
 20
-8570.757
 30
-657.854
 70
    32
  0
VERTEX
  8
T59SSILL
 62
3
 10
1910.614
 20
-8478.999
 30
-657.762
 70
    32
  0
VERTEX
  8
T59SSILL
 62
3
 10
1914.787
 20
-8472.979
 30
-657.756
 70
    32
  0
VERTEX
  8
T59SSILL
 62
3
 10
1894.427
 20
-8452.979
 30
-657.736
 70
    32
  0
VERTEX
  8
T59SSILL
 62
3
 10
1885.139
 20
-8454.724
 30
-657.738
 70
    32
  0
VERTEX
  8
T59SSILL
 62
3
 10
1722.534
 20
-8304.090
 30
-657.948
 70
    32
  0
VERTEX
  8
T59SSILL
 62
3
 10
1717.687
 20
-8291.369
 30
-657.980
 70
    32
  0
VERTEX
  8
T59SSILL
 62
3
 10
1717.383
 20
-8288.681
 30
-657.987
 70
    32
  0
VERTEX
  8
T59SSILL
 62
3
 10
1718.197
 20
-8287.981
 30
-657.988
 70
    32
  0
VERTEX
  8
T59SSILL
 62
3
 10
1724.013
 20
-8288.097
 30
-657.988
 70
    32
  0
VERTEX
  8
T59SSILL
 62
3
 10
1725.060
 20
-8293.697
 30
-657.974
 70
    32
  0
VERTEX
  8
T59SSILL
 62
3
 10
1729.014
 20
-8293.580
 30
-657.974
 70
    32
  0
VERTEX
  8
T59SSILL
 62
3
 10
1730.643
 20
-8283.431
 30
-657.999
 70
    32
  0
VERTEX
  8
T59SSILL
 62
3
 10
1717.150
 20
-8278.065
 30
-658.013
 70
    32
  0
VERTEX
  8
T59SSILL
 62
3
 10
1716.718
 20
-8257.308
 30
-658.065
 70
    32
  0
VERTEX
  8
T59SSILL
 62
3
 10
1703.546
 20
-8258.024
 30
-658.067
 70
    32
  0
VERTEX
  8
T59SSILL
 62
3
 10
1704.835
 20
-8282.951
 30
-658.005
 70
    32
  0
VERTEX
  8
T59SSILL
 62
3
 10
1701.773
 20
-8284.594
 30
-658.002
 70
    32
  0
VERTEX
  8
T59SSILL
 62
3
 10
1667.878
 20
-8255.683
 30
-658.083
 70
    32
  0
VERTEX
  8
T59SSILL
 62
3
 10
1646.993
 20
-8235.678
 30
-658.138
 70
    32
  0
VERTEX
  8
T59SSILL
 62
3
 10
1640.624
 20
-8220.645
 30
-658.153
 70
    32
  0
VERTEX
  8
T59SSILL
 62
3
 10
1639.641
 20
-8205.039
 30
-658.145
 70
    32
  0
VERTEX
  8
T59SSILL
 62
3
 10
1643.462
 20
-8188.960
 30
-658.152
 70
    32
  0
VERTEX
  8
T59SSILL
 62
3
 10
1651.862
 20
-8175.973
 30
-658.173
 70
    32
  0
VERTEX
  8
T59SSILL
 62
3
 10
1812.822
 20
-8061.046
 30
-658.224
 70
    32
  0
VERTEX
  8
T59SSILL
 62
3
 10
1807.709
 20
-8053.294
 30
-658.187
 70
    32
  0
VERTEX
  8
T59SSILL
 62
3
 10
1784.510
 20
-8069.858
 30
-658.429
 70
    32
  0
VERTEX
  8
T59SSILL
 62
3
 10
1782.267
 20
-8068.005
 30
-658.420
 70
    32
  0
VERTEX
  8
T59SSILL
 62
3
 10
1774.878
 20
-8073.890
 30
-658.459
 70
    32
  0
VERTEX
  8
T59SSILL
 62
3
 10
1770.421
 20
-8068.736
 30
-658.437
 70
    32
  0
VERTEX
  8
T59SSILL
 62
3
 10
1759.380
 20
-8076.656
 30
-658.466
 70
    32
  0
VERTEX
  8
T59SSILL
 62
3
 10
1763.108
 20
-8082.456
 30
-658.473
 70
    32
  0
VERTEX
  8
T59SSILL
 62
3
 10
1755.069
 20
-8088.054
 30
-658.451
 70
    32
  0
VERTEX
  8
T59SSILL
 62
3
 10
1755.948
 20
-8090.584
 30
-658.454
 70
    32
  0
VERTEX
  8
T59SSILL
 62
3
 10
1648.276
 20
-8167.985
 30
-658.160
 70
    32
  0
VERTEX
  8
T59SSILL
 62
3
 10
1637.322
 20
-8180.334
 30
-658.131
 70
    32
  0
VERTEX
  8
T59SSILL
 62
3
 10
1633.057
 20
-8194.768
 30
-658.123
 70
    32
  0
VERTEX
  8
T59SSILL
 62
3
 10
1630.917
 20
-8203.908
 30
-658.119
 70
    32
  0
VERTEX
  8
T59SSILL
 62
3
 10
1630.613
 20
-8215.092
 30
-658.122
 70
    32
  0
VERTEX
  8
T59SSILL
 62
3
 10
1632.940
 20
-8223.898
 30
-658.131
 70
    32
  0
VERTEX
  8
T59SSILL
 62
3
 10
1572.550
 20
-8167.254
 30
-657.937
 70
    32
  0
VERTEX
  8
T59SSILL
 62
3
 10
1567.038
 20
-8157.398
 30
-657.917
 70
    32
  0
VERTEX
  8
T59SSILL
 62
3
 10
1563.098
 20
-8136.739
 30
-657.935
 70
    32
  0
VERTEX
  8
T59SSILL
 62
3
 10
1565.798
 20
-8123.898
 30
-657.965
 70
    32
  0
VERTEX
  8
T59SSILL
 62
3
 10
1569.717
 20
-8115.090
 30
-657.990
 70
    32
  0
VERTEX
  8
T59SSILL
 62
3
 10
1577.128
 20
-8106.558
 30
-658.023
 70
    32
  0
VERTEX
  8
T59SSILL
 62
3
 10
1710.607
 20
-8008.709
 30
-658.155
 70
    32
  0
VERTEX
  8
T59SSILL
 62
3
 10
1717.309
 20
-8009.029
 30
-658.155
 70
    32
  0
VERTEX
  8
T59SSILL
 62
3
 10
1720.355
 20
-8005.578
 30
-658.136
 70
    32
  0
VERTEX
  8
T59SSILL
 62
3
 10
1724.504
 20
-8005.259
 30
-658.133
 70
    32
  0
VERTEX
  8
T59SSILL
 62
3
 10
1729.737
 20
-8001.950
 30
-658.114
 70
    32
  0
VERTEX
  8
T59SSILL
 62
3
 10
1744.058
 20
-7987.776
 30
-658.037
 70
    32
  0
VERTEX
  8
T59SSILL
 62
3
 10
1750.701
 20
-7985.419
 30
-658.023
 70
    32
  0
VERTEX
  8
T59SSILL
 62
3
 10
1761.658
 20
-7975.868
 30
-657.970
 70
    32
  0
VERTEX
  8
T59SSILL
 62
3
 10
1788.211
 20
-7948.734
 30
-657.823
 70
    32
  0
VERTEX
  8
T59SSILL
 62
3
 10
1808.439
 20
-7931.423
 30
-657.728
 70
    32
  0
VERTEX
  8
T59SSILL
 62
3
 10
1801.345
 20
-7923.813
 30
-657.692
 70
    32
  0
VERTEX
  8
T59SSILL
 62
3
 10
1782.253
 20
-7941.086
 30
-657.787
 70
    32
  0
VERTEX
  8
T59SSILL
 62
3
 10
1755.641
 20
-7968.785
 30
-657.937
 70
    32
  0
VERTEX
  8
T59SSILL
 62
3
 10
1751.706
 20
-7971.835
 30
-657.954
 70
    32
  0
VERTEX
  8
T59SSILL
 62
3
 10
1748.480
 20
-7971.473
 30
-657.953
 70
    32
  0
VERTEX
  8
T59SSILL
 62
3
 10
1742.912
 20
-7964.070
 30
-657.918
 70
    32
  0
VERTEX
  8
T59SSILL
 62
3
 10
1734.044
 20
-7971.813
 30
-657.960
 70
    32
  0
VERTEX
  8
T59SSILL
 62
3
 10
1736.011
 20
-7979.240
 30
-657.997
 70
    32
  0
VERTEX
  8
T59SSILL
 62
3
 10
1722.805
 20
-7980.207
 30
-658.007
 70
    32
  0
VERTEX
  8
T59SSILL
 62
3
 10
1715.087
 20
-7985.349
 30
-658.036
 70
    32
  0
VERTEX
  8
T59SSILL
 62
3
 10
1708.308
 20
-7992.210
 30
-658.073
 70
    32
  0
VERTEX
  8
T59SSILL
 62
3
 10
1704.594
 20
-7999.660
 30
-658.112
 70
    32
  0
VERTEX
  8
T59SSILL
 62
3
 10
1705.929
 20
-8002.512
 30
-658.126
 70
    32
  0
VERTEX
  8
T59SSILL
 62
3
 10
1684.525
 20
-8018.317
 30
-658.139
 70
    32
  0
VERTEX
  8
T59SSILL
 62
3
 10
1685.025
 20
-8018.734
 30
-657.059
 70
    32
  0
VERTEX
  8
T59SSILL
 62
3
 10
1679.781
 20
-8014.356
 30
-656.995
 70
    32
  0
VERTEX
  8
T59SSILL
 62
3
 10
1682.525
 20
-7756.835
 30
-653.207
 70
    32
  0
VERTEX
  8
T59SSILL
 62
3
 10
1684.497
 20
-7747.788
 30
-652.938
 70
    32
  0
VERTEX
  8
T59SSILL
 62
3
 10
1695.450
 20
-7737.400
 30
-652.717
 70
    32
  0
VERTEX
  8
T59SSILL
 62
3
 10
1731.306
 20
-7720.935
 30
-652.289
 70
    32
  0
VERTEX
  8
T59SSILL
 62
3
 10
2011.765
 20
-7613.501
 30
-649.170
 70
    32
  0
VERTEX
  8
T59SSILL
 62
3
 10
2029.253
 20
-7611.412
 30
-649.169
 70
    32
  0
VERTEX
  8
T59SSILL
 62
3
 10
2039.911
 20
-7608.150
 30
-649.169
 70
    32
  0
VERTEX
  8
T59SSILL
 62
3
 10
2038.282
 20
-7596.516
 30
-649.169
 70
    32
  0
VERTEX
  8
T59SSILL
 62
3
 10
2033.937
 20
-7585.467
 30
-649.169
 70
    32
  0
VERTEX
  8
T59SSILL
 62
3
 10
1841.177
 20
-7660.340
 30
-650.953
 70
    32
  0
VERTEX
  8
T59SSILL
 62
3
 10
1704.521
 20
-7711.016
 30
-652.634
 70
    32
  0
VERTEX
  8
T59SSILL
 62
3
 10
1696.749
 20
-7715.099
 30
-652.722
 70
    32
  0
VERTEX
  8
T59SSILL
 62
3
 10
1684.051
 20
-7717.742
 30
-652.885
 70
    32
  0
VERTEX
  8
T59SSILL
 62
3
 10
1672.247
 20
-7712.556
 30
-653.487
 70
    32
  0
VERTEX
  8
T59SSILL
 62
3
 10
1657.218
 20
-7704.018
 30
-654.167
 70
    32
  0
VERTEX
  8
T59SSILL
 62
3
 10
1651.408
 20
-7703.920
 30
-654.408
 70
    32
  0
VERTEX
  8
T59SSILL
 62
3
 10
1636.629
 20
-7700.143
 30
-655.041
 70
    32
  0
VERTEX
  8
T59SSILL
 62
3
 10
1630.380
 20
-7705.702
 30
-655.294
 70
    32
  0
VERTEX
  8
T59SSILL
 62
3
 10
1622.339
 20
-7708.549
 30
-655.699
 70
    32
  0
SEQEND
  8
T59SSILL
  0
POLYLINE
  8
R_SHAFTS_2
 62
8
 66
     1
 70
     9
  0
VERTEX
  8
R_SHAFTS_2
 62
8
 10
-478.481
 20
690.374
 30
4431.830
 70
    32
  0
VERTEX
  8
R_SHAFTS_2
 62
8
 10
-468.481
 20
690.374
 30
4431.830
 70
    32
  0
VERTEX
  8
R_SHAFTS_2
 62
8
 10
-468.481
 20
680.374
 30
4431.830
 70
    32
  0
VERTEX
  8
R_SHAFTS_2
 62
8
 10
-478.481
 20
680.374
 30
4431.830
 70
    32
  0
SEQEND
  8
R_SHAFTS_2
  0
POLYLINE
  8
R_SHAFTS_2
 62
8
 66
     1
 70
     9
  0
VERTEX
  8
R_SHAFTS_2
 62
8
 10
-3716.381
 20
1088.144
 30
5100.370
 70
    32
  0
VERTEX
  8
R_SHAFTS_2
 62
8
 10
-3706.381
 20
1088.144
 30
5100.370
 70
    32
  0
VERTEX
  8
R_SHAFTS_2
 62
8
 10
-3706.381
 20
1078.144
 30
5100.370
 70
    32
  0
VERTEX
  8
R_SHAFTS_2
 62
8
 10
-3716.381
 20
1078.144
 30
5100.370
 70
    32
  0
SEQEND
  8
R_SHAFTS_2
  0
POLYLINE
  8
R_SHAFTS_2
 62
8
 66
     1
 70
     9
  0
VERTEX
  8
R_SHAFTS_2
 62
8
 10
-700.881
 20
-374.686
 30
4127.920
 70
    32
  0
VERTEX
  8
R_SHAFTS_2
 62
8
 10
-690.881
 20
-374.686
 30
4127.920
 70
    32
  0
VERTEX
  8
R_SHAFTS_2
 62
8
 10
-690.881
 20
-384.686
 30
4127.920
 70
    32
  0
VERTEX
  8
R_SHAFTS_2
 62
8
 10
-700.881
 20
-384.686
 30
4127.920
 70
    32
  0
SEQEND
  8
R_SHAFTS_2
  0
POLYLINE
  8
R_SHAFTS_2
 62
8
 66
     1
 70
     9
  0
VERTEX
  8
R_SHAFTS_2
 62
8
 10
-3716.381
 20
1088.144
 30
4935.510
 70
    32
  0
VERTEX
  8
R_SHAFTS_2
 62
8
 10
-3706.381
 20
1088.144
 30
4935.510
 70
    32
  0
VERTEX
  8
R_SHAFTS_2
 62
8
 10
-3706.381
 20
1078.144
 30
4935.510
 70
    32
  0
VERTEX
  8
R_SHAFTS_2
 62
8
 10
-3716.381
 20
1078.144
 30
4935.510
 70
    32
  0
SEQEND
  8
R_SHAFTS_2
  0
LINE
  8
R_SHAFTS_2
 62
8
 10
-3711.340
 20
1078.144
 30
5100.370
 11
-3711.340
 21
1078.144
 31
4935.510
  0
POLYLINE
  8
R_SHAFTS_2
 62
8
 66
     1
 70
     9
  0
VERTEX
  8
R_SHAFTS_2
 62
8
 10
-2666.581
 20
3279.374
 30
5007.580
 70
    32
  0
VERTEX
  8
R_SHAFTS_2
 62
8
 10
-2656.581
 20
3279.374
 30
5007.580
 70
    32
  0
VERTEX
  8
R_SHAFTS_2
 62
8
 10
-2656.581
 20
3269.374
 30
5007.580
 70
    32
  0
VERTEX
  8
R_SHAFTS_2
 62
8
 10
-2666.581
 20
3269.374
 30
5007.580
 70
    32
  0
SEQEND
  8
R_SHAFTS_2
  0
POLYLINE
  8
R_SHAFTS_2
 62
8
 66
     1
 70
     9
  0
VERTEX
  8
R_SHAFTS_2
 62
8
 10
-1307.921
 20
2098.904
 30
5034.280
 70
    32
  0
VERTEX
  8
R_SHAFTS_2
 62
8
 10
-1297.921
 20
2098.904
 30
5034.280
 70
    32
  0
VERTEX
  8
R_SHAFTS_2
 62
8
 10
-1297.921
 20
2088.904
 30
5034.280
 70
    32
  0
VERTEX
  8
R_SHAFTS_2
 62
8
 10
-1307.921
 20
2088.904
 30
5034.280
 70
    32
  0
SEQEND
  8
R_SHAFTS_2
  0
POLYLINE
  8
R_SHAFTS_2
 62
8
 66
     1
 70
     9
  0
VERTEX
  8
R_SHAFTS_2
 62
8
 10
-2666.581
 20
3279.374
 30
4431.830
 70
    32
  0
VERTEX
  8
R_SHAFTS_2
 62
8
 10
-2656.581
 20
3279.374
 30
4431.830
 70
    32
  0
VERTEX
  8
R_SHAFTS_2
 62
8
 10
-2656.581
 20
3269.374
 30
4431.830
 70
    32
  0
VERTEX
  8
R_SHAFTS_2
 62
8
 10
-2666.581
 20
3269.374
 30
4431.830
 70
    32
  0
SEQEND
  8
R_SHAFTS_2
  0
POLYLINE
  8
R_SHAFTS_2
 62
8
 66
     1
 70
     9
  0
VERTEX
  8
R_SHAFTS_2
 62
8
 10
-1307.921
 20
2098.904
 30
4432.910
 70
    32
  0
VERTEX
  8
R_SHAFTS_2
 62
8
 10
-1297.921
 20
2098.904
 30
4432.910
 70
    32
  0
VERTEX
  8
R_SHAFTS_2
 62
8
 10
-1297.921
 20
2088.904
 30
4432.910
 70
    32
  0
VERTEX
  8
R_SHAFTS_2
 62
8
 10
-1307.921
 20
2088.904
 30
4432.910
 70
    32
  0
SEQEND
  8
R_SHAFTS_2
  0
LINE
  8
R_SHAFTS_2
 62
8
 10
-1297.921
 20
2088.904
 30
5034.280
 11
-1297.921
 21
2088.904
 31
4432.910
  0
LINE
  8
R_SHAFTS_2
 62
8
 10
-2656.581
 20
3269.374
 30
5007.580
 11
-2656.581
 21
3269.374
 31
4431.830
  0
POLYLINE
  8
R_SHAFTS_2
 62
8
 66
     1
 70
     9
  0
VERTEX
  8
R_SHAFTS_2
 62
8
 10
-478.481
 20
690.374
 30
5204.360
 70
    32
  0
VERTEX
  8
R_SHAFTS_2
 62
8
 10
-468.481
 20
690.374
 30
5204.360
 70
    32
  0
VERTEX
  8
R_SHAFTS_2
 62
8
 10
-468.481
 20
680.374
 30
5204.360
 70
    32
  0
VERTEX
  8
R_SHAFTS_2
 62
8
 10
-478.481
 20
680.374
 30
5204.360
 70
    32
  0
SEQEND
  8
R_SHAFTS_2
  0
POLYLINE
  8
R_SHAFTS_2
 62
8
 66
     1
 70
     9
  0
VERTEX
  8
R_SHAFTS_2
 62
8
 10
558.659
 20
-1379.056
 30
3525.000
 70
    32
  0
VERTEX
  8
R_SHAFTS_2
 62
8
 10
568.659
 20
-1379.056
 30
3525.000
 70
    32
  0
VERTEX
  8
R_SHAFTS_2
 62
8
 10
568.659
 20
-1389.056
 30
3525.000
 70
    32
  0
VERTEX
  8
R_SHAFTS_2
 62
8
 10
558.659
 20
-1389.056
 30
3525.000
 70
    32
  0
SEQEND
  8
R_SHAFTS_2
  0
POLYLINE
  8
R_SHAFTS_2
 62
8
 66
     1
 70
     9
  0
VERTEX
  8
R_SHAFTS_2
 62
8
 10
-700.881
 20
-374.686
 30
5382.190
 70
    32
  0
VERTEX
  8
R_SHAFTS_2
 62
8
 10
-690.881
 20
-374.686
 30
5382.190
 70
    32
  0
VERTEX
  8
R_SHAFTS_2
 62
8
 10
-690.881
 20
-384.686
 30
5382.190
 70
    32
  0
VERTEX
  8
R_SHAFTS_2
 62
8
 10
-700.881
 20
-384.686
 30
5382.190
 70
    32
  0
SEQEND
  8
R_SHAFTS_2
  0
POLYLINE
  8
R_SHAFTS_2
 62
8
 66
     1
 70
     9
  0
VERTEX
  8
R_SHAFTS_2
 62
8
 10
558.659
 20
-1379.056
 30
4920.300
 70
    32
  0
VERTEX
  8
R_SHAFTS_2
 62
8
 10
568.659
 20
-1379.056
 30
4920.300
 70
    32
  0
VERTEX
  8
R_SHAFTS_2
 62
8
 10
568.659
 20
-1389.056
 30
4920.300
 70
    32
  0
VERTEX
  8
R_SHAFTS_2
 62
8
 10
558.659
 20
-1389.056
 30
4920.300
 70
    32
  0
SEQEND
  8
R_SHAFTS_2
  0
POLYLINE
  8
R_SHAFTS_2
 62
8
 66
     1
 70
     9
  0
VERTEX
  8
R_SHAFTS_2
 62
8
 10
1147.989
 20
-1107.236
 30
5288.860
 70
    32
  0
VERTEX
  8
R_SHAFTS_2
 62
8
 10
1157.989
 20
-1107.236
 30
5288.860
 70
    32
  0
VERTEX
  8
R_SHAFTS_2
 62
8
 10
1157.989
 20
-1117.236
 30
5288.860
 70
    32
  0
VERTEX
  8
R_SHAFTS_2
 62
8
 10
1147.989
 20
-1117.236
 30
5288.860
 70
    32
  0
SEQEND
  8
R_SHAFTS_2
  0
POLYLINE
  8
R_SHAFTS_2
 62
8
 66
     1
 70
     9
  0
VERTEX
  8
R_SHAFTS_2
 62
8
 10
1686.099
 20
-794.496
 30
5312.340
 70
    32
  0
VERTEX
  8
R_SHAFTS_2
 62
8
 10
1696.099
 20
-794.496
 30
5312.340
 70
    32
  0
VERTEX
  8
R_SHAFTS_2
 62
8
 10
1696.099
 20
-804.496
 30
5312.340
 70
    32
  0
VERTEX
  8
R_SHAFTS_2
 62
8
 10
1686.099
 20
-804.496
 30
5312.340
 70
    32
  0
SEQEND
  8
R_SHAFTS_2
  0
POLYLINE
  8
R_SHAFTS_2
 62
8
 66
     1
 70
     9
  0
VERTEX
  8
R_SHAFTS_2
 62
8
 10
1335.159
 20
-2429.116
 30
5129.360
 70
    32
  0
VERTEX
  8
R_SHAFTS_2
 62
8
 10
1345.159
 20
-2429.116
 30
5129.360
 70
    32
  0
VERTEX
  8
R_SHAFTS_2
 62
8
 10
1345.159
 20
-2439.116
 30
5129.360
 70
    32
  0
VERTEX
  8
R_SHAFTS_2
 62
8
 10
1335.159
 20
-2439.116
 30
5129.360
 70
    32
  0
SEQEND
  8
R_SHAFTS_2
  0
POLYLINE
  8
R_SHAFTS_2
 62
8
 66
     1
 70
     9
  0
VERTEX
  8
R_SHAFTS_2
 62
8
 10
1901.149
 20
-2678.226
 30
5255.210
 70
    32
  0
VERTEX
  8
R_SHAFTS_2
 62
8
 10
1911.149
 20
-2678.226
 30
5255.210
 70
    32
  0
VERTEX
  8
R_SHAFTS_2
 62
8
 10
1911.149
 20
-2688.226
 30
5255.210
 70
    32
  0
VERTEX
  8
R_SHAFTS_2
 62
8
 10
1901.149
 20
-2688.226
 30
5255.210
 70
    32
  0
SEQEND
  8
R_SHAFTS_2
  0
POLYLINE
  8
R_SHAFTS_2
 62
8
 66
     1
 70
     9
  0
VERTEX
  8
R_SHAFTS_2
 62
8
 10
2860.979
 20
-3818.296
 30
3227.240
 70
    32
  0
VERTEX
  8
R_SHAFTS_2
 62
8
 10
2870.979
 20
-3818.296
 30
3227.240
 70
    32
  0
VERTEX
  8
R_SHAFTS_2
 62
8
 10
2870.979
 20
-3828.296
 30
3227.240
 70
    32
  0
VERTEX
  8
R_SHAFTS_2
 62
8
 10
2860.979
 20
-3828.296
 30
3227.240
 70
    32
  0
SEQEND
  8
R_SHAFTS_2
  0
POLYLINE
  8
R_SHAFTS_2
 62
8
 66
     1
 70
     9
  0
VERTEX
  8
R_SHAFTS_2
 62
8
 10
1915.569
 20
-5410.906
 30
5132.170
 70
    32
  0
VERTEX
  8
R_SHAFTS_2
 62
8
 10
1925.569
 20
-5410.906
 30
5132.170
 70
    32
  0
VERTEX
  8
R_SHAFTS_2
 62
8
 10
1925.569
 20
-5420.906
 30
5132.170
 70
    32
  0
VERTEX
  8
R_SHAFTS_2
 62
8
 10
1915.569
 20
-5420.906
 30
5132.170
 70
    32
  0
SEQEND
  8
R_SHAFTS_2
  0
POLYLINE
  8
R_SHAFTS_2
 62
8
 66
     1
 70
     9
  0
VERTEX
  8
R_SHAFTS_2
 62
8
 10
3476.969
 20
-5184.066
 30
4936.640
 70
    32
  0
VERTEX
  8
R_SHAFTS_2
 62
8
 10
3486.969
 20
-5184.066
 30
4936.640
 70
    32
  0
VERTEX
  8
R_SHAFTS_2
 62
8
 10
3486.969
 20
-5194.066
 30
4936.640
 70
    32
  0
VERTEX
  8
R_SHAFTS_2
 62
8
 10
3476.969
 20
-5194.066
 30
4936.640
 70
    32
  0
SEQEND
  8
R_SHAFTS_2
  0
POLYLINE
  8
R_SHAFTS_2
 62
8
 66
     1
 70
     9
  0
VERTEX
  8
R_SHAFTS_2
 62
8
 10
2007.309
 20
-6365.696
 30
-1540.860
 70
    32
  0
VERTEX
  8
R_SHAFTS_2
 62
8
 10
2017.309
 20
-6365.696
 30
-1540.860
 70
    32
  0
VERTEX
  8
R_SHAFTS_2
 62
8
 10
2017.309
 20
-6375.696
 30
-1540.860
 70
    32
  0
VERTEX
  8
R_SHAFTS_2
 62
8
 10
2007.309
 20
-6375.696
 30
-1540.860
 70
    32
  0
SEQEND
  8
R_SHAFTS_2
  0
POLYLINE
  8
R_SHAFTS_2
 62
8
 66
     1
 70
     9
  0
VERTEX
  8
R_SHAFTS_2
 62
8
 10
5879.549
 20
-8636.476
 30
5137.000
 70
    32
  0
VERTEX
  8
R_SHAFTS_2
 62
8
 10
5889.549
 20
-8636.476
 30
5137.000
 70
    32
  0
VERTEX
  8
R_SHAFTS_2
 62
8
 10
5889.549
 20
-8646.476
 30
5137.000
 70
    32
  0
VERTEX
  8
R_SHAFTS_2
 62
8
 10
5879.549
 20
-8646.476
 30
5137.000
 70
    32
  0
SEQEND
  8
R_SHAFTS_2
  0
POLYLINE
  8
R_SHAFTS_2
 62
8
 66
     1
 70
     9
  0
VERTEX
  8
R_SHAFTS_2
 62
8
 10
1147.989
 20
-1107.236
 30
3522.340
 70
    32
  0
VERTEX
  8
R_SHAFTS_2
 62
8
 10
1157.989
 20
-1107.236
 30
3522.340
 70
    32
  0
VERTEX
  8
R_SHAFTS_2
 62
8
 10
1157.989
 20
-1117.236
 30
3522.340
 70
    32
  0
VERTEX
  8
R_SHAFTS_2
 62
8
 10
1147.989
 20
-1117.236
 30
3522.340
 70
    32
  0
SEQEND
  8
R_SHAFTS_2
  0
POLYLINE
  8
R_SHAFTS_2
 62
8
 66
     1
 70
     9
  0
VERTEX
  8
R_SHAFTS_2
 62
8
 10
1686.099
 20
-794.496
 30
3674.640
 70
    32
  0
VERTEX
  8
R_SHAFTS_2
 62
8
 10
1696.099
 20
-794.496
 30
3674.640
 70
    32
  0
VERTEX
  8
R_SHAFTS_2
 62
8
 10
1696.099
 20
-804.496
 30
3674.640
 70
    32
  0
VERTEX
  8
R_SHAFTS_2
 62
8
 10
1686.099
 20
-804.496
 30
3674.640
 70
    32
  0
SEQEND
  8
R_SHAFTS_2
  0
POLYLINE
  8
R_SHAFTS_2
 62
8
 66
     1
 70
     9
  0
VERTEX
  8
R_SHAFTS_2
 62
8
 10
1335.159
 20
-2429.116
 30
4927.100
 70
    32
  0
VERTEX
  8
R_SHAFTS_2
 62
8
 10
1345.159
 20
-2429.116
 30
4927.100
 70
    32
  0
VERTEX
  8
R_SHAFTS_2
 62
8
 10
1345.159
 20
-2439.116
 30
4927.100
 70
    32
  0
VERTEX
  8
R_SHAFTS_2
 62
8
 10
1335.159
 20
-2439.116
 30
4927.100
 70
    32
  0
SEQEND
  8
R_SHAFTS_2
  0
POLYLINE
  8
R_SHAFTS_2
 62
8
 66
     1
 70
     9
  0
VERTEX
  8
R_SHAFTS_2
 62
8
 10
1901.149
 20
-2678.226
 30
2022.470
 70
    32
  0
VERTEX
  8
R_SHAFTS_2
 62
8
 10
1911.149
 20
-2678.226
 30
2022.470
 70
    32
  0
VERTEX
  8
R_SHAFTS_2
 62
8
 10
1911.149
 20
-2688.226
 30
2022.470
 70
    32
  0
VERTEX
  8
R_SHAFTS_2
 62
8
 10
1901.149
 20
-2688.226
 30
2022.470
 70
    32
  0
SEQEND
  8
R_SHAFTS_2
  0
POLYLINE
  8
R_SHAFTS_2
 62
8
 66
     1
 70
     9
  0
VERTEX
  8
R_SHAFTS_2
 62
8
 10
2860.979
 20
-3818.296
 30
1722.490
 70
    32
  0
VERTEX
  8
R_SHAFTS_2
 62
8
 10
2870.979
 20
-3818.296
 30
1722.490
 70
    32
  0
VERTEX
  8
R_SHAFTS_2
 62
8
 10
2870.979
 20
-3828.296
 30
1722.490
 70
    32
  0
VERTEX
  8
R_SHAFTS_2
 62
8
 10
2860.979
 20
-3828.296
 30
1722.490
 70
    32
  0
SEQEND
  8
R_SHAFTS_2
  0
POLYLINE
  8
R_SHAFTS_2
 62
8
 66
     1
 70
     9
  0
VERTEX
  8
R_SHAFTS_2
 62
8
 10
3476.969
 20
-5184.066
 30
1123.440
 70
    32
  0
VERTEX
  8
R_SHAFTS_2
 62
8
 10
3486.969
 20
-5184.066
 30
1123.440
 70
    32
  0
VERTEX
  8
R_SHAFTS_2
 62
8
 10
3486.969
 20
-5194.066
 30
1123.440
 70
    32
  0
VERTEX
  8
R_SHAFTS_2
 62
8
 10
3476.969
 20
-5194.066
 30
1123.440
 70
    32
  0
SEQEND
  8
R_SHAFTS_2
  0
POLYLINE
  8
R_SHAFTS_2
 62
8
 66
     1
 70
     9
  0
VERTEX
  8
R_SHAFTS_2
 62
8
 10
1915.569
 20
-5410.906
 30
4430.130
 70
    32
  0
VERTEX
  8
R_SHAFTS_2
 62
8
 10
1925.569
 20
-5410.906
 30
4430.130
 70
    32
  0
VERTEX
  8
R_SHAFTS_2
 62
8
 10
1925.569
 20
-5420.906
 30
4430.130
 70
    32
  0
VERTEX
  8
R_SHAFTS_2
 62
8
 10
1915.569
 20
-5420.906
 30
4430.130
 70
    32
  0
SEQEND
  8
R_SHAFTS_2
  0
POLYLINE
  8
R_SHAFTS_2
 62
8
 66
     1
 70
     9
  0
VERTEX
  8
R_SHAFTS_2
 62
8
 10
2007.309
 20
-6365.696
 30
-2727.190
 70
    32
  0
VERTEX
  8
R_SHAFTS_2
 62
8
 10
2017.309
 20
-6365.696
 30
-2727.190
 70
    32
  0
VERTEX
  8
R_SHAFTS_2
 62
8
 10
2017.309
 20
-6375.696
 30
-2727.190
 70
    32
  0
VERTEX
  8
R_SHAFTS_2
 62
8
 10
2007.309
 20
-6375.696
 30
-2727.190
 70
    32
  0
SEQEND
  8
R_SHAFTS_2
  0
POLYLINE
  8
R_SHAFTS_2
 62
8
 66
     1
 70
     9
  0
VERTEX
  8
R_SHAFTS_2
 62
8
 10
5879.549
 20
-8636.476
 30
-1571.540
 70
    32
  0
VERTEX
  8
R_SHAFTS_2
 62
8
 10
5889.549
 20
-8636.476
 30
-1571.540
 70
    32
  0
VERTEX
  8
R_SHAFTS_2
 62
8
 10
5889.549
 20
-8646.476
 30
-1571.540
 70
    32
  0
VERTEX
  8
R_SHAFTS_2
 62
8
 10
5879.549
 20
-8646.476
 30
-1571.540
 70
    32
  0
SEQEND
  8
R_SHAFTS_2
  0
LINE
  8
R_SHAFTS_2
 62
8
 10
-468.481
 20
680.374
 30
5204.360
 11
-468.481
 21
680.374
 31
4431.830
  0
LINE
  8
R_SHAFTS_2
 62
8
 10
-700.881
 20
-374.686
 30
5382.190
 11
-700.881
 21
-384.686
 31
4127.920
  0
LINE
  8
R_SHAFTS_2
 62
8
 10
558.659
 20
-1389.056
 30
4920.300
 11
558.659
 21
-1389.056
 31
3525.000
  0
LINE
  8
R_SHAFTS_2
 62
8
 10
1147.989
 20
-1107.236
 30
5288.860
 11
1147.989
 21
-1117.236
 31
3522.340
  0
LINE
  8
R_SHAFTS_2
 62
8
 10
1686.099
 20
-794.496
 30
5312.340
 11
1686.099
 21
-804.496
 31
3674.640
  0
LINE
  8
R_SHAFTS_2
 62
8
 10
1335.159
 20
-2439.116
 30
5129.360
 11
1335.159
 21
-2439.116
 31
4927.100
  0
LINE
  8
R_SHAFTS_2
 62
8
 10
1901.149
 20
-2678.226
 30
5255.210
 11
1901.149
 21
-2678.226
 31
2022.470
  0
LINE
  8
R_SHAFTS_2
 62
8
 10
2860.979
 20
-3828.296
 30
3227.240
 11
2860.979
 21
-3818.296
 31
1722.490
  0
LINE
  8
R_SHAFTS_2
 62
8
 10
1915.569
 20
-5410.906
 30
5132.170
 11
1915.569
 21
-5410.906
 31
4430.130
  0
LINE
  8
R_SHAFTS_2
 62
8
 10
3476.969
 20
-5194.066
 30
4936.640
 11
3476.969
 21
-5189.066
 31
1123.440
  0
LINE
  8
R_SHAFTS_2
 62
8
 10
2007.309
 20
-6365.696
 30
-1540.860
 11
2007.309
 21
-6365.696
 31
-2727.190
  0
POLYLINE
  8
R_SHAFTS_2
 62
8
 66
     1
 70
     9
  0
VERTEX
  8
R_SHAFTS_2
 62
8
 10
1686.099
 20
-794.496
 30
5312.340
 70
    32
  0
VERTEX
  8
R_SHAFTS_2
 62
8
 10
1696.099
 20
-794.496
 30
5312.340
 70
    32
  0
VERTEX
  8
R_SHAFTS_2
 62
8
 10
1696.099
 20
-804.496
 30
5312.340
 70
    32
  0
VERTEX
  8
R_SHAFTS_2
 62
8
 10
1686.099
 20
-794.909
 30
5244.801
 70
    32
  0
SEQEND
  8
R_SHAFTS_2
  0
POLYLINE
  8
R_SHAFTS_2
 62
8
 66
     1
 70
     9
  0
VERTEX
  8
R_SHAFTS_2
 62
8
 10
4834.380
 20
-6367.750
 30
1126.470
 70
    32
  0
VERTEX
  8
R_SHAFTS_2
 62
8
 10
4844.380
 20
-6367.750
 30
1126.470
 70
    32
  0
VERTEX
  8
R_SHAFTS_2
 62
8
 10
4844.380
 20
-6377.750
 30
1126.470
 70
    32
  0
VERTEX
  8
R_SHAFTS_2
 62
8
 10
4834.380
 20
-6377.750
 30
1126.470
 70
    32
  0
SEQEND
  8
R_SHAFTS_2
  0
POLYLINE
  8
R_SHAFTS_2
 62
8
 66
     1
 70
     9
  0
VERTEX
  8
R_SHAFTS_2
 62
8
 10
4834.380
 20
-6367.750
 30
226.130
 70
    32
  0
VERTEX
  8
R_SHAFTS_2
 62
8
 10
4844.380
 20
-6367.750
 30
226.130
 70
    32
  0
VERTEX
  8
R_SHAFTS_2
 62
8
 10
4844.380
 20
-6377.750
 30
226.130
 70
    32
  0
VERTEX
  8
R_SHAFTS_2
 62
8
 10
4834.380
 20
-6377.750
 30
226.130
 70
    32
  0
SEQEND
  8
R_SHAFTS_2
  0
LINE
  8
R_SHAFTS_2
 62
8
 10
4834.380
 20
-6377.750
 30
1126.470
 11
4834.380
 21
-6377.750
 31
226.130
  0
LINE
  8
R_SHAFTS_2
 62
8
 10
5879.549
 20
-8636.476
 30
5137.000
 11
5879.549
 21
-8636.476
 31
-1571.540
  0
TEXT
  8
R_SHAFTS_2
 62
1
 10
-3686.775
 20
1100.846
 30
5023.474
 40
0.100
  1
HIDDEN FORTUNE
 50
90.000
 41
 1.0 
  0
TEXT
  8
R_SHAFTS_2
 62
1
 10
-2646.317
 20
3286.313
 30
4684.308
 40
0.100
  1
COLUMBUS
 50
90.000
 41
 1.0 
  0
TEXT
  8
R_SHAFTS_2
 62
1
 10
-1289.325
 20
2104.285
 30
4718.055
 40
0.100
  1
GOLDEN GATE
 50
90.000
 41
 1.0 
  0
TEXT
  8
R_SHAFTS_2
 62
1
 10
-437.381
 20
657.720
 30
4801.051
 40
0.100
  1
OLD BRIG
 50
90.000
 41
 1.0 
  0
TEXT
  8
R_SHAFTS_2
 62
1
 10
-684.973
 20
-360.193
 30
4697.205
 40
0.100
  1
HIGHLAND
 50
90.000
 41
 1.0 
  0
TEXT
  8
R_SHAFTS_2
 62
1
 10
589.116
 20
-1391.339
 30
4229.343
 40
0.100
  1
STAR
 50
90.000
 41
 1.0 
  0
TEXT
  8
R_SHAFTS_2
 62
1
 10
1177.126
 20
-1114.364
 30
4440.533
 40
0.100
  1
B&M
 50
90.000
 41
 1.0 
  0
TEXT
  8
R_SHAFTS_2
 62
1
 10
1359.568
 20
-2445.945
 30
5021.168
 40
0.100
  1
PIERCE
 50
90.000
 41
 1.0 
  0
TEXT
  8
R_SHAFTS_2
 62
1
 10
1926.495
 20
-2678.590
 30
3469.752
 40
0.100
  1
ELLISON
 50
90.000
 41
 1.0 
  0
TEXT
  8
R_SHAFTS_2
 62
1
 10
2927.776
 20
-3877.189
 30
2456.247
 40
0.100
  1
MILLIKEN
 50
90.000
 41
 1.0 
  0
TEXT
  8
R_SHAFTS_2
 62
1
 10
1949.046
 20
-5433.893
 30
4750.731
 40
0.100
  1
MILNARICH
 50
90.000
 41
 1.0 
  0
TEXT
  8
R_SHAFTS_2
 62
1
 10
3551.182
 20
-5227.224
 30
2980.752
 40
0.100
  1
ORO HONDO
 50
90.000
 41
 1.0 
  0
TEXT
  8
R_SHAFTS_2
 62
1
 10
2017.349
 20
-6357.658
 30
-2173.886
 40
0.100
  1
7 SHAFT
 50
90.000
 41
 1.0 
  0
TEXT
  8
R_SHAFTS_2
 62
1
 10
5906.133
 20
-8623.541
 30
2312.731
 40
0.100
  1
5 SHAFT
 50
90.000
 41
 1.0 
  0
TEXT
  8
R_SHAFTS_2
 62
1
 10
1697.299
 20
-799.316
 30
4453.134
 40
0.100
  1
B&M#2
 50
90.000
 41
 1.0 
  0
TEXT
  8
R_SHAFTS_2
 62
1
 10
4839.607
 20
-6346.803
 30
607.064
 40
0.100
  1
3 WINZE
 50
90.000
 41
 1.0 
  0
TEXT
  8
R_SHAFTS_2
 62
1
 10
2168.342
 20
-2426.315
 30
4107.000
 40
0.100
  1
#2 AIR RAISE - APPROX LOCATION
 50
90.000
 41
 1.0 
  0
POLYLINE
  8
R_SHAFTS_1
 62
6
 66
     1
 70
     9
  0
VERTEX
  8
R_SHAFTS_1
 62
6
 10
2130.839
 20
-4604.504
 30
5355.000
 70
    32
  0
VERTEX
  8
R_SHAFTS_1
 62
6
 10
2138.228
 20
-4604.504
 30
5355.000
 70
    32
  0
VERTEX
  8
R_SHAFTS_1
 62
6
 10
2137.839
 20
-4627.259
 30
5355.000
 70
    32
  0
VERTEX
  8
R_SHAFTS_1
 62
6
 10
2130.256
 20
-4627.259
 30
5355.000
 70
    32
  0
SEQEND
  8
R_SHAFTS_1
  0
POLYLINE
  8
R_SHAFTS_1
 62
6
 66
     1
 70
     9
  0
VERTEX
  8
R_SHAFTS_1
 62
6
 10
3992.817
 20
-2531.732
 30
5310.000
 70
    32
  0
VERTEX
  8
R_SHAFTS_1
 62
6
 10
3985.496
 20
-2520.607
 30
5310.000
 70
    32
  0
VERTEX
  8
R_SHAFTS_1
 62
6
 10
3988.791
 20
-2518.406
 30
5310.000
 70
    32
  0
VERTEX
  8
R_SHAFTS_1
 62
6
 10
3996.112
 20
-2529.409
 30
5310.000
 70
    32
  0
SEQEND
  8
R_SHAFTS_1
  0
POLYLINE
  8
R_SHAFTS_1
 62
6
 66
     1
 70
     9
  0
VERTEX
  8
R_SHAFTS_1
 62
6
 10
5884.445
 20
-8451.304
 30
527.000
 70
    32
  0
VERTEX
  8
R_SHAFTS_1
 62
6
 10
5875.030
 20
-8437.336
 30
527.000
 70
    32
  0
VERTEX
  8
R_SHAFTS_1
 62
6
 10
5881.621
 20
-8433.372
 30
527.000
 70
    32
  0
VERTEX
  8
R_SHAFTS_1
 62
6
 10
5891.035
 20
-8446.774
 30
527.000
 70
    32
  0
SEQEND
  8
R_SHAFTS_1
  0
POLYLINE
  8
R_SHAFTS_1
 62
6
 66
     1
 70
     9
  0
VERTEX
  8
R_SHAFTS_1
 62
6
 10
2150.594
 20
-4783.658
 30
699.000
 70
    32
  0
VERTEX
  8
R_SHAFTS_1
 62
6
 10
2156.312
 20
-4785.505
 30
699.000
 70
    32
  0
VERTEX
  8
R_SHAFTS_1
 62
6
 10
2151.332
 20
-4804.349
 30
699.000
 70
    32
  0
VERTEX
  8
R_SHAFTS_1
 62
6
 10
2144.692
 20
-4802.316
 30
699.000
 70
    32
  0
SEQEND
  8
R_SHAFTS_1
  0
POLYLINE
  8
R_SHAFTS_1
 62
6
 66
     1
 70
     9
  0
VERTEX
  8
R_SHAFTS_1
 62
6
 10
3992.817
 20
-2531.732
 30
376.000
 70
    32
  0
VERTEX
  8
R_SHAFTS_1
 62
6
 10
3985.496
 20
-2520.607
 30
376.000
 70
    32
  0
VERTEX
  8
R_SHAFTS_1
 62
6
 10
3988.791
 20
-2518.406
 30
376.000
 70
    32
  0
VERTEX
  8
R_SHAFTS_1
 62
6
 10
3996.112
 20
-2529.409
 30
376.000
 70
    32
  0
SEQEND
  8
R_SHAFTS_1
  0
POLYLINE
  8
R_SHAFTS_1
 62
6
 66
     1
 70
     9
  0
VERTEX
  8
R_SHAFTS_1
 62
6
 10
5884.445
 20
-8451.304
 30
-2314.000
 70
    32
  0
VERTEX
  8
R_SHAFTS_1
 62
6
 10
5875.030
 20
-8437.336
 30
-2314.000
 70
    32
  0
VERTEX
  8
R_SHAFTS_1
 62
6
 10
5881.621
 20
-8433.372
 30
-2314.000
 70
    32
  0
VERTEX
  8
R_SHAFTS_1
 62
6
 10
5891.035
 20
-8446.774
 30
-2314.000
 70
    32
  0
SEQEND
  8
R_SHAFTS_1
  0
POLYLINE
  8
R_SHAFTS_1
 62
6
 66
     1
 70
     9
  0
VERTEX
  8
R_SHAFTS_1
 62
6
 10
2130.839
 20
-4604.504
 30
228.000
 70
    32
  0
VERTEX
  8
R_SHAFTS_1
 62
6
 10
2138.228
 20
-4604.504
 30
228.000
 70
    32
  0
VERTEX
  8
R_SHAFTS_1
 62
6
 10
2137.839
 20
-4627.259
 30
228.000
 70
    32
  0
VERTEX
  8
R_SHAFTS_1
 62
6
 10
2130.256
 20
-4627.259
 30
228.000
 70
    32
  0
SEQEND
  8
R_SHAFTS_1
  0
POLYLINE
  8
R_SHAFTS_1
 62
6
 66
     1
 70
     9
  0
VERTEX
  8
R_SHAFTS_1
 62
6
 10
2150.594
 20
-4783.658
 30
-2960.000
 70
    32
  0
VERTEX
  8
R_SHAFTS_1
 62
6
 10
2156.312
 20
-4785.505
 30
-2960.000
 70
    32
  0
VERTEX
  8
R_SHAFTS_1
 62
6
 10
2151.332
 20
-4804.349
 30
-2960.000
 70
    32
  0
VERTEX
  8
R_SHAFTS_1
 62
6
 10
2144.692
 20
-4802.316
 30
-2960.000
 70
    32
  0
SEQEND
  8
R_SHAFTS_1
  0
LINE
  8
R_SHAFTS_1
 62
13
 10
5887.740
 20
-8449.039
 30
527.000
 11
5887.740
 21
-8449.039
 31
-2314.000
  0
LINE
  8
R_SHAFTS_1
 62
13
 10
2147.643
 20
-4792.987
 30
699.000
 11
2147.643
 21
-4792.987
 31
-2960.000
  0
LINE
  8
R_SHAFTS_1
 62
13
 10
2130.547
 20
-4615.882
 30
5355.000
 11
2130.547
 21
-4615.882
 31
228.000
  0
LINE
  8
R_SHAFTS_1
 62
13
 10
3994.465
 20
-2530.570
 30
5310.000
 11
3994.465
 21
-2530.570
 31
376.000
  0
TEXT
  8
R_SHAFTS_1
 62
1
 10
2169.321
 20
-4771.133
 30
-958.959
 40
4.101
  1
6-SHAFT
 41
 1.0 
  0
TEXT
  8
R_SHAFTS_1
 62
1
 10
2153.751
 20
-4589.779
 30
2937.728
 40
4.101
  1
ROSS
 50
88.532
 41
 1.0 
  0
TEXT
  8
R_SHAFTS_1
 62
1
 10
4010.258
 20
-2505.121
 30
2898.139
 40
4.101
  1
YATES
 41
 1.0 
  0
TEXT
  8
R_SHAFTS_1
 62
1
 10
5881.528
 20
-8420.618
 30
-792.374
 40
4.101
  1
4-WINZE
 41
 1.0 
  0
POLYLINE
  8
T59SSILL
 62
7
 66
     1
 70
     9
  0
VERTEX
  8
T59SSILL
 62
7
 10
1257.598
 20
-7601.105
 30
-656.129
 70
    32
  0
VERTEX
  8
T59SSILL
 62
7
 10
1265.275
 20
-7594.065
 30
-656.115
 70
    32
  0
VERTEX
  8
T59SSILL
 62
7
 10
1287.642
 20
-7614.119
 30
-656.197
 70
    32
  0
VERTEX
  8
T59SSILL
 62
7
 10
1284.798
 20
-7625.110
 30
-656.229
 70
    32
  0
VERTEX
  8
T59SSILL
 62
7
 10
1263.583
 20
-7607.955
 30
-656.156
 70
    32
  0
SEQEND
  8
T59SSILL
  0
POLYLINE
  8
T59SSILL
 62
7
 66
     1
 70
     9
  0
VERTEX
  8
T59SSILL
 62
7
 10
1167.614
 20
-7679.196
 30
-656.288
 70
    32
  0
VERTEX
  8
T59SSILL
 62
7
 10
1167.358
 20
-7691.373
 30
-656.321
 70
    32
  0
VERTEX
  8
T59SSILL
 62
7
 10
1142.784
 20
-7677.512
 30
-656.188
 70
    32
  0
VERTEX
  8
T59SSILL
 62
7
 10
1139.119
 20
-7663.298
 30
-656.140
 70
    32
  0
VERTEX
  8
T59SSILL
 62
7
 10
1165.767
 20
-7678.166
 30
-656.283
 70
    32
  0
SEQEND
  8
T59SSILL
  0
POLYLINE
  8
T59SSILL
 62
7
 66
     1
 70
     9
  0
VERTEX
  8
T59SSILL
 62
7
 10
582.274
 20
-5488.329
 30
-650.526
 70
    32
  0
VERTEX
  8
T59SSILL
 62
7
 10
568.577
 20
-5486.145
 30
-650.566
 70
    32
  0
VERTEX
  8
T59SSILL
 62
7
 10
553.577
 20
-5487.221
 30
-650.620
 70
    32
  0
VERTEX
  8
T59SSILL
 62
7
 10
560.394
 20
-5468.727
 30
-650.539
 70
    32
  0
VERTEX
  8
T59SSILL
 62
7
 10
576.021
 20
-5477.427
 30
-650.513
 70
    32
  0
VERTEX
  8
T59SSILL
 62
7
 10
597.440
 20
-5480.446
 30
-650.460
 70
    32
  0
VERTEX
  8
T59SSILL
 62
7
 10
589.837
 20
-5484.398
 30
-650.488
 70
    32
  0
SEQEND
  8
T59SSILL
  0
POLYLINE
  8
T59SSILL
 62
7
 66
     1
 70
     9
  0
VERTEX
  8
T59SSILL
 62
7
 10
1321.531
 20
-8172.116
 30
-657.009
 70
    32
  0
VERTEX
  8
T59SSILL
 62
7
 10
1308.919
 20
-8153.621
 30
-656.950
 70
    32
  0
VERTEX
  8
T59SSILL
 62
7
 10
1317.429
 20
-8147.698
 30
-656.968
 70
    32
  0
VERTEX
  8
T59SSILL
 62
7
 10
1331.473
 20
-8166.869
 30
-657.032
 70
    32
  0
SEQEND
  8
T59SSILL
  0
TEXT
  8
T59SSILL
 62
7
 10
1258.974
 20
-7640.549
 30
-641.145
 40
0.200
  1
U
 41
 1.0 
  0
TEXT
  8
T59SSILL
 62
7
 10
1151.315
 20
-7699.675
 30
-646.403
 40
0.200
  1
U
 41
 1.0 
  0
TEXT
  8
T59SSILL
 62
7
 10
583.474
 20
-5460.478
 30
-629.546
 40
0.200
  1
U
 41
 1.0 
  0
TEXT
  8
T59SSILL
 62
7
 10
1304.835
 20
-8172.286
 30
-649.897
 40
0.200
  1
D
 41
 1.0 
  0
TEXT
  8
T59SSILL
 62
3
 10
1308.975
 20
-6673.207
 30
-647.692
 40
0.200
  1
5900
 41
 1.0 
  0
TEXT
  8
T59SSILL
 62
3
 10
5770.920
 20
-9164.193
 30
-651.659
 40
0.200
  1
5900
 41
 1.0 
  0
TEXT
  8
T59SSILL
 62
7
 10
1209.191
 20
-7620.541
 30
-641.145
 40
0.200
  1
U
 41
 1.0 
  0
POLYLINE
  8
T59SSILL
 62
3
 66
     1
 70
     9
  0
VERTEX
  8
T59SSILL
 62
3
 10
1345.803
 20
-8065.962
 30
-657.314
 70
    32
  0
VERTEX
  8
T59SSILL
 62
3
 10
1335.841
 20
-8063.467
 30
-657.270
 70
    32
  0
VERTEX
  8
T59SSILL
 62
3
 10
1325.924
 20
-8073.853
 30
-657.186
 70
    32
  0
VERTEX
  8
T59SSILL
 62
3
 10
1321.917
 20
-8089.082
 30
-657.117
 70
    32
  0
VERTEX
  8
T59SSILL
 62
3
 10
1315.472
 20
-8085.394
 30
-657.095
 70
    32
  0
VERTEX
  8
T59SSILL
 62
3
 10
1315.003
 20
-8078.068
 30
-657.116
 70
    32
  0
VERTEX
  8
T59SSILL
 62
3
 10
1312.014
 20
-8070.297
 30
-657.125
 70
    32
  0
VERTEX
  8
T59SSILL
 62
3
 10
1312.268
 20
-8067.370
 30
-657.135
 70
    32
  0
VERTEX
  8
T59SSILL
 62
3
 10
1319.969
 20
-8053.583
 30
-657.204
 70
    32
  0
VERTEX
  8
T59SSILL
 62
3
 10
1320.181
 20
-8049.261
 30
-657.203
 70
    32
  0
VERTEX
  8
T59SSILL
 62
3
 10
1316.745
 20
-8044.451
 30
-657.181
 70
    32
  0
VERTEX
  8
T59SSILL
 62
3
 10
1296.028
 20
-8059.614
 30
-657.069
 70
    32
  0
VERTEX
  8
T59SSILL
 62
3
 10
1299.265
 20
-8073.668
 30
-657.048
 70
    32
  0
VERTEX
  8
T59SSILL
 62
3
 10
1346.311
 20
-8139.272
 30
-657.086
 70
    32
  0
VERTEX
  8
T59SSILL
 62
3
 10
1353.652
 20
-8139.120
 30
-657.125
 70
    32
  0
VERTEX
  8
T59SSILL
 62
3
 10
1358.455
 20
-8134.484
 30
-657.164
 70
    32
  0
VERTEX
  8
T59SSILL
 62
3
 10
1362.429
 20
-8136.158
 30
-657.180
 70
    32
  0
VERTEX
  8
T59SSILL
 62
3
 10
1366.073
 20
-8135.006
 30
-657.202
 70
    32
  0
VERTEX
  8
T59SSILL
 62
3
 10
1374.673
 20
-8144.887
 30
-657.216
 70
    32
  0
VERTEX
  8
T59SSILL
 62
3
 10
1384.594
 20
-8146.451
 30
-657.262
 70
    32
  0
VERTEX
  8
T59SSILL
 62
3
 10
1411.074
 20
-8127.808
 30
-657.458
 70
    32
  0
VERTEX
  8
T59SSILL
 62
3
 10
1404.911
 20
-8115.582
 30
-657.465
 70
    32
  0
VERTEX
  8
T59SSILL
 62
3
 10
1398.799
 20
-8114.279
 30
-657.437
 70
    32
  0
VERTEX
  8
T59SSILL
 62
3
 10
1395.647
 20
-8111.341
 30
-657.430
 70
    32
  0
VERTEX
  8
T59SSILL
 62
3
 10
1394.114
 20
-8091.867
 30
-657.483
 70
    32
  0
VERTEX
  8
T59SSILL
 62
3
 10
1391.047
 20
-8085.030
 30
-657.488
 70
    32
  0
VERTEX
  8
T59SSILL
 62
3
 10
1397.130
 20
-8074.847
 30
-657.552
 70
    32
  0
VERTEX
  8
T59SSILL
 62
3
 10
1395.136
 20
-8064.261
 30
-657.575
 70
    32
  0
VERTEX
  8
T59SSILL
 62
3
 10
1405.048
 20
-8058.379
 30
-657.645
 70
    32
  0
VERTEX
  8
T59SSILL
 62
3
 10
1428.827
 20
-8084.689
 30
-657.685
 70
    32
  0
VERTEX
  8
T59SSILL
 62
3
 10
1443.575
 20
-8074.366
 30
-657.791
 70
    32
  0
VERTEX
  8
T59SSILL
 62
3
 10
1439.522
 20
-8067.380
 30
-657.793
 70
    32
  0
VERTEX
  8
T59SSILL
 62
3
 10
1447.513
 20
-8061.270
 30
-657.828
 70
    32
  0
VERTEX
  8
T59SSILL
 62
3
 10
1404.393
 20
-8022.255
 30
-657.695
 70
    32
  0
VERTEX
  8
T59SSILL
 62
3
 10
1388.924
 20
-8015.245
 30
-657.598
 70
    32
  0
VERTEX
  8
T59SSILL
 62
3
 10
1376.341
 20
-8013.342
 30
-657.511
 70
    32
  0
VERTEX
  8
T59SSILL
 62
3
 10
1361.569
 20
-8015.902
 30
-657.427
 70
    32
  0
VERTEX
  8
T59SSILL
 62
3
 10
1357.541
 20
-8018.475
 30
-657.405
 70
    32
  0
VERTEX
  8
T59SSILL
 62
3
 10
1361.471
 20
-8027.811
 30
-657.432
 70
    32
  0
VERTEX
  8
T59SSILL
 62
3
 10
1355.083
 20
-8032.081
 30
-657.397
 70
    32
  0
VERTEX
  8
T59SSILL
 62
3
 10
1347.119
 20
-8024.252
 30
-657.347
 70
    32
  0
VERTEX
  8
T59SSILL
 62
3
 10
1340.142
 20
-8029.505
 30
-657.310
 70
    32
  0
VERTEX
  8
T59SSILL
 62
3
 10
1337.878
 20
-8034.462
 30
-657.299
 70
    32
  0
VERTEX
  8
T59SSILL
 62
3
 10
1339.367
 20
-8044.215
 30
-657.311
 70
    32
  0
VERTEX
  8
T59SSILL
 62
3
 10
1356.294
 20
-8062.864
 30
-657.378
 70
    32
  0
VERTEX
  8
T59SSILL
 62
3
 10
1359.114
 20
-8056.729
 30
-657.412
 70
    32
  0
VERTEX
  8
T59SSILL
 62
3
 10
1361.071
 20
-8046.300
 30
-657.437
 70
    32
  0
VERTEX
  8
T59SSILL
 62
3
 10
1375.856
 20
-8035.729
 30
-657.518
 70
    32
  0
VERTEX
  8
T59SSILL
 62
3
 10
1380.847
 20
-8038.187
 30
-657.548
 70
    32
  0
VERTEX
  8
T59SSILL
 62
3
 10
1385.074
 20
-8034.852
 30
-657.570
 70
    32
  0
VERTEX
  8
T59SSILL
 62
3
 10
1389.913
 20
-8042.903
 30
-657.602
 70
    32
  0
VERTEX
  8
T59SSILL
 62
3
 10
1379.784
 20
-8047.301
 30
-657.545
 70
    32
  0
VERTEX
  8
T59SSILL
 62
3
 10
1373.565
 20
-8052.543
 30
-657.500
 70
    32
  0
VERTEX
  8
T59SSILL
 62
3
 10
1366.543
 20
-8063.090
 30
-657.430
 70
    32
  0
VERTEX
  8
T59SSILL
 62
3
 10
1366.859
 20
-8071.844
 30
-657.404
 70
    32
  0
VERTEX
  8
T59SSILL
 62
3
 10
1374.253
 20
-8090.944
 30
-657.383
 70
    32
  0
VERTEX
  8
T59SSILL
 62
3
 10
1397.190
 20
-8123.247
 30
-657.400
 70
    32
  0
VERTEX
  8
T59SSILL
 62
3
 10
1388.186
 20
-8128.131
 30
-657.338
 70
    32
  0
VERTEX
  8
T59SSILL
 62
3
 10
1375.938
 20
-8117.760
 30
-657.307
 70
    32
  0
VERTEX
  8
T59SSILL
 62
3
 10
1373.132
 20
-8107.115
 30
-657.326
 70
    32
  0
SEQEND
  8
T59SSILL
  0
POLYLINE
  8
T59SSILL
 62
2
 66
     1
 70
     8
  0
VERTEX
  8
T59SSILL
 62
2
 10
1195.171
 20
-7612.799
 30
-654.000
 70
    32
  0
VERTEX
  8
T59SSILL
 62
2
 10
1209.770
 20
-7600.883
 30
-652.000
 70
    32
  0
VERTEX
  8
T59SSILL
 62
2
 10
1213.823
 20
-7610.741
 30
-652.000
 70
    32
  0
VERTEX
  8
T59SSILL
 62
2
 10
1200.169
 20
-7620.788
 30
-654.000
 70
    32
  0
SEQEND
  8
T59SSILL
  0
POLYLINE
  8
T59SSILL
 62
16
 66
     1
 70
     9
  0
VERTEX
  8
T59SSILL
 62
16
 10
2966.997
 20
-8168.039
 30
-640.000
 70
    32
  0
VERTEX
  8
T59SSILL
 62
16
 10
2965.575
 20
-8162.759
 30
-640.000
 70
    32
  0
VERTEX
  8
T59SSILL
 62
16
 10
2972.319
 20
-8162.467
 30
-640.000
 70
    32
  0
VERTEX
  8
T59SSILL
 62
16
 10
2992.394
 20
-8159.974
 30
-640.000
 70
    32
  0
VERTEX
  8
T59SSILL
 62
16
 10
2992.849
 20
-8165.963
 30
-640.000
 70
    32
  0
VERTEX
  8
T59SSILL
 62
16
 10
2974.788
 20
-8169.142
 30
-640.000
 70
    32
  0
VERTEX
  8
T59SSILL
 62
16
 10
2968.179
 20
-8168.169
 30
-640.000
 70
    32
  0
SEQEND
  8
T59SSILL
  0
POLYLINE
  8
T59SSILL
 62
27
 66
     1
 70
     9
  0
VERTEX
  8
T59SSILL
 62
27
 10
2963.548
 20
-8162.048
 30
-657.722
 70
    32
  0
VERTEX
  8
T59SSILL
 62
27
 10
2984.814
 20
-8159.400
 30
-655.730
 70
    32
  0
VERTEX
  8
T59SSILL
 62
27
 10
2993.491
 20
-8160.109
 30
-657.764
 70
    32
  0
VERTEX
  8
T59SSILL
 62
27
 10
2997.394
 20
-8170.015
 30
-657.759
 70
    32
  0
VERTEX
  8
T59SSILL
 62
27
 10
2988.575
 20
-8170.953
 30
-655.519
 70
    32
  0
VERTEX
  8
T59SSILL
 62
27
 10
2982.427
 20
-8177.849
 30
-655.769
 70
    32
  0
VERTEX
  8
T59SSILL
 62
27
 10
2974.842
 20
-8176.262
 30
-656.781
 70
    32
  0
VERTEX
  8
T59SSILL
 62
27
 10
2965.632
 20
-8171.963
 30
-657.798
 70
    32
  0
SEQEND
  8
T59SSILL
  0
ENDSEC
  0
EOF
