999
********************************
999
*   DXF File - Entities Only   *
999
*        3D Data Format        *
999
*     Output from ENVISAGE     *
999
*     18-Nov-2006 13:17:55     *
999
********************************
  0
SECTION 
  2
HEADER
  9
$ACADVER
  1
AC1009
  9
$EXTMIN
 10
-290000.000
 20
-250000.000
 30
-4000.000
  9
$EXTMAX
 10
320000.000
 20
160000.000
 30
6000.000
  0
ENDSEC
  0
SECTION
  2
ENTITIES
  0
LINE
  8
1000SCALE
 62
1
 10
-1031.834
 20
-9943.797
 30
1000.000
 11
-35.369
 21
-9943.797
 31
1000.000
  0
POLYLINE
  8
T68SSILL
 62
2
 66
     1
 70
     9
  0
VERTEX
  8
T68SSILL
 62
2
 10
1447.012
 20
-5254.210
 30
-1530.550
 70
    32
  0
VERTEX
  8
T68SSILL
 62
2
 10
1447.050
 20
-5254.427
 30
-1530.550
 70
    32
  0
SEQEND
  8
T68SSILL
  0
POLYLINE
  8
T68SSILL
 62
2
 66
     1
 70
     9
  0
VERTEX
  8
T68SSILL
 62
2
 10
7418.412
 20
-8783.527
 30
-1557.307
 70
    32
  0
VERTEX
  8
T68SSILL
 62
2
 10
7418.339
 20
-8818.052
 30
-1557.310
 70
    32
  0
VERTEX
  8
T68SSILL
 62
2
 10
7449.681
 20
-8795.129
 30
-1557.135
 70
    32
  0
VERTEX
  8
T68SSILL
 62
2
 10
7431.002
 20
-8783.687
 30
-1557.238
 70
    32
  0
SEQEND
  8
T68SSILL
  0
POLYLINE
  8
T68SSILL
 62
2
 66
     1
 70
     9
  0
VERTEX
  8
T68SSILL
 62
2
 10
4204.201
 20
-9703.151
 30
-1552.121
 70
    32
  0
VERTEX
  8
T68SSILL
 62
2
 10
4218.521
 20
-9708.913
 30
-1552.184
 70
    32
  0
VERTEX
  8
T68SSILL
 62
2
 10
4237.132
 20
-9702.406
 30
-1552.245
 70
    32
  0
VERTEX
  8
T68SSILL
 62
2
 10
4238.299
 20
-9692.316
 30
-1552.236
 70
    32
  0
VERTEX
  8
T68SSILL
 62
2
 10
4204.191
 20
-9702.954
 30
-1552.121
 70
    32
  0
SEQEND
  8
T68SSILL
  0
POLYLINE
  8
T68SSILL
 62
2
 66
     1
 70
     9
  0
VERTEX
  8
T68SSILL
 62
2
 10
1175.043
 20
-5401.417
 30
-1531.188
 70
    32
  0
VERTEX
  8
T68SSILL
 62
2
 10
1155.978
 20
-5413.974
 30
-1531.235
 70
    32
  0
VERTEX
  8
T68SSILL
 62
2
 10
1158.320
 20
-5427.573
 30
-1531.270
 70
    32
  0
VERTEX
  8
T68SSILL
 62
2
 10
1161.658
 20
-5429.763
 30
-1531.274
 70
    32
  0
SEQEND
  8
T68SSILL
  0
POLYLINE
  8
T68SSILL
 62
2
 66
     1
 70
     9
  0
VERTEX
  8
T68SSILL
 62
2
 10
7533.171
 20
-8520.860
 30
-1556.925
 70
    32
  0
VERTEX
  8
T68SSILL
 62
2
 10
7427.847
 20
-8595.244
 30
-1557.239
 70
    32
  0
VERTEX
  8
T68SSILL
 62
2
 10
7420.601
 20
-8607.009
 30
-1557.282
 70
    32
  0
VERTEX
  8
T68SSILL
 62
2
 10
7418.761
 20
-8617.885
 30
-1557.293
 70
    32
  0
VERTEX
  8
T68SSILL
 62
2
 10
7418.441
 20
-8769.776
 30
-1557.306
 70
    32
  0
VERTEX
  8
T68SSILL
 62
2
 10
7453.934
 20
-8781.554
 30
-1557.111
 70
    32
  0
VERTEX
  8
T68SSILL
 62
2
 10
7459.465
 20
-8787.974
 30
-1557.081
 70
    32
  0
VERTEX
  8
T68SSILL
 62
2
 10
7483.181
 20
-8770.371
 30
-1556.948
 70
    32
  0
VERTEX
  8
T68SSILL
 62
2
 10
7499.054
 20
-8752.333
 30
-1556.928
 70
    32
  0
VERTEX
  8
T68SSILL
 62
2
 10
7507.473
 20
-8732.423
 30
-1556.955
 70
    32
  0
VERTEX
  8
T68SSILL
 62
2
 10
7513.576
 20
-8663.201
 30
-1557.051
 70
    32
  0
VERTEX
  8
T68SSILL
 62
2
 10
7511.437
 20
-8646.504
 30
-1557.074
 70
    32
  0
VERTEX
  8
T68SSILL
 62
2
 10
7503.677
 20
-8632.998
 30
-1557.094
 70
    32
  0
VERTEX
  8
T68SSILL
 62
2
 10
7507.045
 20
-8629.665
 30
-1557.098
 70
    32
  0
VERTEX
  8
T68SSILL
 62
2
 10
7516.346
 20
-8626.042
 30
-1557.102
 70
    32
  0
VERTEX
  8
T68SSILL
 62
2
 10
7517.761
 20
-8615.787
 30
-1557.117
 70
    32
  0
VERTEX
  8
T68SSILL
 62
2
 10
7528.934
 20
-8582.312
 30
-1557.162
 70
    32
  0
VERTEX
  8
T68SSILL
 62
2
 10
7531.773
 20
-8578.381
 30
-1557.168
 70
    32
  0
VERTEX
  8
T68SSILL
 62
2
 10
7535.294
 20
-8519.361
 30
-1556.919
 70
    32
  0
SEQEND
  8
T68SSILL
  0
POLYLINE
  8
T68SSILL
 62
2
 66
     1
 70
     9
  0
VERTEX
  8
T68SSILL
 62
2
 10
7540.496
 20
-8579.148
 30
-1557.166
 70
    32
  0
VERTEX
  8
T68SSILL
 62
2
 10
7536.167
 20
-8616.540
 30
-1557.114
 70
    32
  0
VERTEX
  8
T68SSILL
 62
2
 10
7539.124
 20
-8624.587
 30
-1557.103
 70
    32
  0
VERTEX
  8
T68SSILL
 62
2
 10
7539.394
 20
-8631.720
 30
-1557.093
 70
    32
  0
VERTEX
  8
T68SSILL
 62
2
 10
7534.712
 20
-8654.499
 30
-1557.061
 70
    32
  0
VERTEX
  8
T68SSILL
 62
2
 10
7530.051
 20
-8656.910
 30
-1557.058
 70
    32
  0
VERTEX
  8
T68SSILL
 62
2
 10
7524.970
 20
-8663.170
 30
-1557.050
 70
    32
  0
VERTEX
  8
T68SSILL
 62
2
 10
7521.719
 20
-8672.344
 30
-1557.038
 70
    32
  0
VERTEX
  8
T68SSILL
 62
2
 10
7520.131
 20
-8697.690
 30
-1557.002
 70
    32
  0
VERTEX
  8
T68SSILL
 62
2
 10
7530.524
 20
-8709.884
 30
-1556.985
 70
    32
  0
VERTEX
  8
T68SSILL
 62
2
 10
7550.469
 20
-8711.603
 30
-1556.981
 70
    32
  0
VERTEX
  8
T68SSILL
 62
2
 10
7546.779
 20
-8696.532
 30
-1557.002
 70
    32
  0
VERTEX
  8
T68SSILL
 62
2
 10
7548.483
 20
-8681.014
 30
-1557.024
 70
    32
  0
VERTEX
  8
T68SSILL
 62
2
 10
7560.889
 20
-8672.303
 30
-1557.035
 70
    32
  0
VERTEX
  8
T68SSILL
 62
2
 10
7563.176
 20
-8660.682
 30
-1557.051
 70
    32
  0
VERTEX
  8
T68SSILL
 62
2
 10
7560.224
 20
-8656.939
 30
-1557.056
 70
    32
  0
VERTEX
  8
T68SSILL
 62
2
 10
7555.935
 20
-8636.259
 30
-1557.085
 70
    32
  0
VERTEX
  8
T68SSILL
 62
2
 10
7565.603
 20
-8616.441
 30
-1557.112
 70
    32
  0
VERTEX
  8
T68SSILL
 62
2
 10
7561.536
 20
-8604.973
 30
-1557.129
 70
    32
  0
VERTEX
  8
T68SSILL
 62
2
 10
7564.053
 20
-8577.576
 30
-1557.166
 70
    32
  0
VERTEX
  8
T68SSILL
 62
2
 10
7558.530
 20
-8567.563
 30
-1557.136
 70
    32
  0
VERTEX
  8
T68SSILL
 62
2
 10
7549.328
 20
-8565.193
 30
-1557.123
 70
    32
  0
VERTEX
  8
T68SSILL
 62
2
 10
7542.238
 20
-8576.170
 30
-1557.170
 70
    32
  0
SEQEND
  8
T68SSILL
  0
POLYLINE
  8
T68SSILL
 62
2
 66
     1
 70
     9
  0
VERTEX
  8
T68SSILL
 62
2
 10
7576.548
 20
-8317.457
 30
-1556.324
 70
    32
  0
VERTEX
  8
T68SSILL
 62
2
 10
7584.652
 20
-8319.951
 30
-1556.343
 70
    32
  0
VERTEX
  8
T68SSILL
 62
2
 10
7584.551
 20
-8233.764
 30
-1556.116
 70
    32
  0
VERTEX
  8
T68SSILL
 62
2
 10
7576.646
 20
-8229.407
 30
-1556.090
 70
    32
  0
VERTEX
  8
T68SSILL
 62
2
 10
7524.870
 20
-8229.899
 30
-1556.000
 70
    32
  0
VERTEX
  8
T68SSILL
 62
2
 10
7517.979
 20
-8238.184
 30
-1556.012
 70
    32
  0
VERTEX
  8
T68SSILL
 62
2
 10
7524.984
 20
-8248.773
 30
-1556.055
 70
    32
  0
VERTEX
  8
T68SSILL
 62
2
 10
7539.358
 20
-8277.987
 30
-1556.160
 70
    32
  0
VERTEX
  8
T68SSILL
 62
2
 10
7556.588
 20
-8299.919
 30
-1556.245
 70
    32
  0
VERTEX
  8
T68SSILL
 62
2
 10
7573.194
 20
-8315.289
 30
-1556.312
 70
    32
  0
SEQEND
  8
T68SSILL
  0
POLYLINE
  8
T68SSILL
 62
2
 66
     1
 70
     9
  0
VERTEX
  8
T68SSILL
 62
2
 10
7578.113
 20
-8367.080
 30
-1556.457
 70
    32
  0
VERTEX
  8
T68SSILL
 62
2
 10
7585.288
 20
-8365.488
 30
-1556.464
 70
    32
  0
VERTEX
  8
T68SSILL
 62
2
 10
7586.107
 20
-8342.729
 30
-1556.405
 70
    32
  0
VERTEX
  8
T68SSILL
 62
2
 10
7569.863
 20
-8323.120
 30
-1556.328
 70
    32
  0
VERTEX
  8
T68SSILL
 62
2
 10
7554.531
 20
-8310.947
 30
-1556.271
 70
    32
  0
VERTEX
  8
T68SSILL
 62
2
 10
7549.468
 20
-8304.810
 30
-1556.247
 70
    32
  0
VERTEX
  8
T68SSILL
 62
2
 10
7525.736
 20
-8290.028
 30
-1556.170
 70
    32
  0
VERTEX
  8
T68SSILL
 62
2
 10
7514.903
 20
-8272.758
 30
-1556.107
 70
    32
  0
VERTEX
  8
T68SSILL
 62
2
 10
7502.900
 20
-8260.725
 30
-1556.051
 70
    32
  0
VERTEX
  8
T68SSILL
 62
2
 10
7498.575
 20
-8250.731
 30
-1556.014
 70
    32
  0
VERTEX
  8
T68SSILL
 62
2
 10
7499.473
 20
-8242.347
 30
-1555.991
 70
    32
  0
VERTEX
  8
T68SSILL
 62
2
 10
7496.741
 20
-8240.604
 30
-1555.982
 70
    32
  0
VERTEX
  8
T68SSILL
 62
2
 10
7488.515
 20
-8239.164
 30
-1555.963
 70
    32
  0
VERTEX
  8
T68SSILL
 62
2
 10
7484.477
 20
-8243.076
 30
-1555.967
 70
    32
  0
VERTEX
  8
T68SSILL
 62
2
 10
7485.948
 20
-8251.305
 30
-1555.994
 70
    32
  0
VERTEX
  8
T68SSILL
 62
2
 10
7482.885
 20
-8260.133
 30
-1556.014
 70
    32
  0
VERTEX
  8
T68SSILL
 62
2
 10
7486.885
 20
-8265.831
 30
-1556.037
 70
    32
  0
VERTEX
  8
T68SSILL
 62
2
 10
7486.715
 20
-8267.889
 30
-1556.043
 70
    32
  0
VERTEX
  8
T68SSILL
 62
2
 10
7481.955
 20
-8271.232
 30
-1556.044
 70
    32
  0
VERTEX
  8
T68SSILL
 62
2
 10
7472.584
 20
-8266.935
 30
-1556.015
 70
    32
  0
VERTEX
  8
T68SSILL
 62
2
 10
7455.076
 20
-8262.858
 30
-1555.973
 70
    32
  0
VERTEX
  8
T68SSILL
 62
2
 10
7445.356
 20
-8271.407
 30
-1555.980
 70
    32
  0
VERTEX
  8
T68SSILL
 62
2
 10
7437.100
 20
-8285.004
 30
-1556.005
 70
    32
  0
VERTEX
  8
T68SSILL
 62
2
 10
7437.693
 20
-8295.309
 30
-1556.036
 70
    32
  0
VERTEX
  8
T68SSILL
 62
2
 10
7458.480
 20
-8335.958
 30
-1556.183
 70
    32
  0
VERTEX
  8
T68SSILL
 62
2
 10
7472.444
 20
-8346.184
 30
-1556.232
 70
    32
  0
VERTEX
  8
T68SSILL
 62
2
 10
7482.728
 20
-8357.916
 30
-1556.280
 70
    32
  0
VERTEX
  8
T68SSILL
 62
2
 10
7490.446
 20
-8357.559
 30
-1556.291
 70
    32
  0
VERTEX
  8
T68SSILL
 62
2
 10
7495.061
 20
-8368.426
 30
-1556.327
 70
    32
  0
VERTEX
  8
T68SSILL
 62
2
 10
7489.918
 20
-8372.144
 30
-1556.329
 70
    32
  0
VERTEX
  8
T68SSILL
 62
2
 10
7484.334
 20
-8369.712
 30
-1556.314
 70
    32
  0
VERTEX
  8
T68SSILL
 62
2
 10
7482.517
 20
-8381.541
 30
-1556.342
 70
    32
  0
VERTEX
  8
T68SSILL
 62
2
 10
7531.591
 20
-8476.742
 30
-1556.731
 70
    32
  0
VERTEX
  8
T68SSILL
 62
2
 10
7537.765
 20
-8492.437
 30
-1556.801
 70
    32
  0
VERTEX
  8
T68SSILL
 62
2
 10
7537.966
 20
-8506.834
 30
-1556.864
 70
    32
  0
VERTEX
  8
T68SSILL
 62
2
 10
7578.589
 20
-8477.880
 30
-1556.750
 70
    32
  0
VERTEX
  8
T68SSILL
 62
2
 10
7583.692
 20
-8466.436
 30
-1556.728
 70
    32
  0
VERTEX
  8
T68SSILL
 62
2
 10
7583.735
 20
-8451.007
 30
-1556.687
 70
    32
  0
VERTEX
  8
T68SSILL
 62
2
 10
7580.876
 20
-8451.076
 30
-1556.683
 70
    32
  0
VERTEX
  8
T68SSILL
 62
2
 10
7580.616
 20
-8421.105
 30
-1556.603
 70
    32
  0
VERTEX
  8
T68SSILL
 62
2
 10
7584.214
 20
-8417.179
 30
-1556.599
 70
    32
  0
VERTEX
  8
T68SSILL
 62
2
 10
7584.524
 20
-8386.486
 30
-1556.518
 70
    32
  0
VERTEX
  8
T68SSILL
 62
2
 10
7576.102
 20
-8377.562
 30
-1556.481
 70
    32
  0
SEQEND
  8
T68SSILL
  0
POLYLINE
  8
T68SSILL
 62
2
 66
     1
 70
     9
  0
VERTEX
  8
T68SSILL
 62
2
 10
7414.680
 20
-8319.436
 30
-1556.065
 70
    32
  0
VERTEX
  8
T68SSILL
 62
2
 10
7407.834
 20
-8343.735
 30
-1556.122
 70
    32
  0
VERTEX
  8
T68SSILL
 62
2
 10
7468.321
 20
-8487.244
 30
-1556.762
 70
    32
  0
VERTEX
  8
T68SSILL
 62
2
 10
7475.804
 20
-8514.619
 30
-1556.884
 70
    32
  0
VERTEX
  8
T68SSILL
 62
2
 10
7476.268
 20
-8530.770
 30
-1556.956
 70
    32
  0
VERTEX
  8
T68SSILL
 62
2
 10
7474.758
 20
-8545.184
 30
-1557.019
 70
    32
  0
VERTEX
  8
T68SSILL
 62
2
 10
7476.111
 20
-8547.572
 30
-1557.029
 70
    32
  0
VERTEX
  8
T68SSILL
 62
2
 10
7479.268
 20
-8548.694
 30
-1557.035
 70
    32
  0
VERTEX
  8
T68SSILL
 62
2
 10
7523.692
 20
-8517.179
 30
-1556.907
 70
    32
  0
VERTEX
  8
T68SSILL
 62
2
 10
7530.635
 20
-8504.981
 30
-1556.854
 70
    32
  0
VERTEX
  8
T68SSILL
 62
2
 10
7529.995
 20
-8491.647
 30
-1556.796
 70
    32
  0
VERTEX
  8
T68SSILL
 62
2
 10
7475.543
 20
-8387.407
 30
-1556.346
 70
    32
  0
VERTEX
  8
T68SSILL
 62
2
 10
7464.438
 20
-8382.174
 30
-1556.315
 70
    32
  0
VERTEX
  8
T68SSILL
 62
2
 10
7447.512
 20
-8365.736
 30
-1556.244
 70
    32
  0
VERTEX
  8
T68SSILL
 62
2
 10
7434.776
 20
-8345.602
 30
-1556.171
 70
    32
  0
VERTEX
  8
T68SSILL
 62
2
 10
7414.832
 20
-8319.652
 30
-1556.066
 70
    32
  0
SEQEND
  8
T68SSILL
  0
POLYLINE
  8
T68SSILL
 62
2
 66
     1
 70
     9
  0
VERTEX
  8
T68SSILL
 62
2
 10
6915.044
 20
-9088.159
 30
-1559.826
 70
    32
  0
VERTEX
  8
T68SSILL
 62
2
 10
6868.560
 20
-9121.940
 30
-1560.063
 70
    32
  0
VERTEX
  8
T68SSILL
 62
2
 10
6912.254
 20
-9182.137
 30
-1560.133
 70
    32
  0
VERTEX
  8
T68SSILL
 62
2
 10
6966.819
 20
-9143.445
 30
-1559.829
 70
    32
  0
VERTEX
  8
T68SSILL
 62
2
 10
6960.483
 20
-9134.433
 30
-1559.863
 70
    32
  0
VERTEX
  8
T68SSILL
 62
2
 10
6969.894
 20
-9127.595
 30
-1559.810
 70
    32
  0
VERTEX
  8
T68SSILL
 62
2
 10
6941.025
 20
-9088.433
 30
-1559.754
 70
    32
  0
VERTEX
  8
T68SSILL
 62
2
 10
6933.893
 20
-9084.974
 30
-1559.763
 70
    32
  0
VERTEX
  8
T68SSILL
 62
2
 10
6926.874
 20
-9084.250
 30
-1559.781
 70
    32
  0
VERTEX
  8
T68SSILL
 62
2
 10
6916.990
 20
-9087.093
 30
-1559.817
 70
    32
  0
SEQEND
  8
T68SSILL
  0
POLYLINE
  8
T68SSILL
 62
2
 66
     1
 70
     9
  0
VERTEX
  8
T68SSILL
 62
2
 10
6818.626
 20
-9181.048
 30
-1560.389
 70
    32
  0
VERTEX
  8
T68SSILL
 62
2
 10
6850.992
 20
-9226.160
 30
-1560.316
 70
    32
  0
VERTEX
  8
T68SSILL
 62
2
 10
6900.405
 20
-9190.718
 30
-1560.199
 70
    32
  0
VERTEX
  8
T68SSILL
 62
2
 10
6901.681
 20
-9181.138
 30
-1560.162
 70
    32
  0
VERTEX
  8
T68SSILL
 62
2
 10
6862.527
 20
-9125.928
 30
-1560.092
 70
    32
  0
VERTEX
  8
T68SSILL
 62
2
 10
6821.942
 20
-9155.383
 30
-1560.299
 70
    32
  0
VERTEX
  8
T68SSILL
 62
2
 10
6816.353
 20
-9164.688
 30
-1560.344
 70
    32
  0
VERTEX
  8
T68SSILL
 62
2
 10
6817.846
 20
-9179.655
 30
-1560.387
 70
    32
  0
SEQEND
  8
T68SSILL
  0
POLYLINE
  8
T68SSILL
 62
2
 66
     1
 70
     9
  0
VERTEX
  8
T68SSILL
 62
2
 10
6496.350
 20
-9475.199
 30
-1560.244
 70
    32
  0
VERTEX
  8
T68SSILL
 62
2
 10
6493.363
 20
-9482.536
 30
-1560.234
 70
    32
  0
VERTEX
  8
T68SSILL
 62
2
 10
6576.715
 20
-9422.284
 30
-1560.198
 70
    32
  0
VERTEX
  8
T68SSILL
 62
2
 10
6572.573
 20
-9416.795
 30
-1560.219
 70
    32
  0
VERTEX
  8
T68SSILL
 62
2
 10
6548.405
 20
-9415.875
 30
-1560.270
 70
    32
  0
VERTEX
  8
T68SSILL
 62
2
 10
6535.505
 20
-9412.532
 30
-1560.303
 70
    32
  0
VERTEX
  8
T68SSILL
 62
2
 10
6505.439
 20
-9398.819
 30
-1560.395
 70
    32
  0
VERTEX
  8
T68SSILL
 62
2
 10
6503.412
 20
-9401.135
 30
-1560.394
 70
    32
  0
VERTEX
  8
T68SSILL
 62
2
 10
6506.527
 20
-9422.310
 30
-1560.341
 70
    32
  0
VERTEX
  8
T68SSILL
 62
2
 10
6506.770
 20
-9435.679
 30
-1560.310
 70
    32
  0
VERTEX
  8
T68SSILL
 62
2
 10
6502.500
 20
-9460.618
 30
-1560.264
 70
    32
  0
VERTEX
  8
T68SSILL
 62
2
 10
6499.072
 20
-9468.702
 30
-1560.253
 70
    32
  0
SEQEND
  8
T68SSILL
  0
POLYLINE
  8
T68SSILL
 62
2
 66
     1
 70
     9
  0
VERTEX
  8
T68SSILL
 62
2
 10
6664.944
 20
-11385.812
 30
-1553.946
 70
    32
  0
VERTEX
  8
T68SSILL
 62
2
 10
6662.955
 20
-11384.528
 30
-1553.948
 70
    32
  0
VERTEX
  8
T68SSILL
 62
2
 10
6649.215
 20
-11341.442
 30
-1554.100
 70
    32
  0
VERTEX
  8
T68SSILL
 62
2
 10
6645.669
 20
-11337.811
 30
-1554.109
 70
    32
  0
VERTEX
  8
T68SSILL
 62
2
 10
6637.556
 20
-11336.557
 30
-1554.102
 70
    32
  0
VERTEX
  8
T68SSILL
 62
2
 10
6621.617
 20
-11343.119
 30
-1554.051
 70
    32
  0
VERTEX
  8
T68SSILL
 62
2
 10
6608.442
 20
-11342.328
 30
-1554.033
 70
    32
  0
VERTEX
  8
T68SSILL
 62
2
 10
6643.957
 20
-11391.641
 30
-1553.890
 70
    32
  0
VERTEX
  8
T68SSILL
 62
2
 10
6659.307
 20
-11399.298
 30
-1553.883
 70
    32
  0
VERTEX
  8
T68SSILL
 62
2
 10
6667.497
 20
-11398.988
 30
-1553.897
 70
    32
  0
VERTEX
  8
T68SSILL
 62
2
 10
6667.280
 20
-11390.625
 30
-1553.931
 70
    32
  0
SEQEND
  8
T68SSILL
  0
POLYLINE
  8
T68SSILL
 62
2
 66
     1
 70
     9
  0
VERTEX
  8
T68SSILL
 62
2
 10
6594.040
 20
-11221.543
 30
-1554.497
 70
    32
  0
VERTEX
  8
T68SSILL
 62
2
 10
6607.997
 20
-11220.700
 30
-1554.522
 70
    32
  0
VERTEX
  8
T68SSILL
 62
2
 10
6625.594
 20
-11253.719
 30
-1554.416
 70
    32
  0
VERTEX
  8
T68SSILL
 62
2
 10
6614.555
 20
-11259.284
 30
-1554.377
 70
    32
  0
VERTEX
  8
T68SSILL
 62
2
 10
6617.582
 20
-11265.224
 30
-1554.358
 70
    32
  0
VERTEX
  8
T68SSILL
 62
2
 10
6631.178
 20
-11265.392
 30
-1554.378
 70
    32
  0
VERTEX
  8
T68SSILL
 62
2
 10
6649.400
 20
-11298.075
 30
-1554.275
 70
    32
  0
VERTEX
  8
T68SSILL
 62
2
 10
6640.295
 20
-11303.023
 30
-1554.241
 70
    32
  0
VERTEX
  8
T68SSILL
 62
2
 10
6644.106
 20
-11309.916
 30
-1554.219
 70
    32
  0
VERTEX
  8
T68SSILL
 62
2
 10
6641.895
 20
-11316.984
 30
-1554.187
 70
    32
  0
VERTEX
  8
T68SSILL
 62
2
 10
6635.442
 20
-11326.736
 30
-1554.138
 70
    32
  0
VERTEX
  8
T68SSILL
 62
2
 10
6625.157
 20
-11333.060
 30
-1554.097
 70
    32
  0
VERTEX
  8
T68SSILL
 62
2
 10
6620.009
 20
-11334.771
 30
-1554.082
 70
    32
  0
VERTEX
  8
T68SSILL
 62
2
 10
6609.103
 20
-11333.988
 30
-1554.068
 70
    32
  0
VERTEX
  8
T68SSILL
 62
2
 10
6598.356
 20
-11328.565
 30
-1554.073
 70
    32
  0
VERTEX
  8
T68SSILL
 62
2
 10
6578.400
 20
-11300.886
 30
-1554.153
 70
    32
  0
VERTEX
  8
T68SSILL
 62
2
 10
6578.772
 20
-11293.506
 30
-1554.184
 70
    32
  0
VERTEX
  8
T68SSILL
 62
2
 10
6583.447
 20
-11289.759
 30
-1554.206
 70
    32
  0
VERTEX
  8
T68SSILL
 62
2
 10
6563.039
 20
-11262.507
 30
-1554.284
 70
    32
  0
VERTEX
  8
T68SSILL
 62
2
 10
6554.904
 20
-11268.062
 30
-1554.249
 70
    32
  0
VERTEX
  8
T68SSILL
 62
2
 10
6536.953
 20
-11243.053
 30
-1554.322
 70
    32
  0
VERTEX
  8
T68SSILL
 62
2
 10
6597.507
 20
-11199.999
 30
-1554.589
 70
    32
  0
VERTEX
  8
T68SSILL
 62
2
 10
6601.974
 20
-11209.015
 30
-1554.559
 70
    32
  0
VERTEX
  8
T68SSILL
 62
2
 10
6590.789
 20
-11215.439
 30
-1554.516
 70
    32
  0
SEQEND
  8
T68SSILL
  0
POLYLINE
  8
T68SSILL
 62
2
 66
     1
 70
     9
  0
VERTEX
  8
T68SSILL
 62
2
 10
6666.491
 20
-11418.601
 30
-1553.817
 70
    32
  0
VERTEX
  8
T68SSILL
 62
2
 10
6669.469
 20
-11415.366
 30
-1553.835
 70
    32
  0
VERTEX
  8
T68SSILL
 62
2
 10
6667.787
 20
-11406.277
 30
-1553.869
 70
    32
  0
VERTEX
  8
T68SSILL
 62
2
 10
6655.075
 20
-11405.045
 30
-1553.854
 70
    32
  0
VERTEX
  8
T68SSILL
 62
2
 10
6653.978
 20
-11406.379
 30
-1553.847
 70
    32
  0
VERTEX
  8
T68SSILL
 62
2
 10
6664.230
 20
-11420.126
 30
-1553.807
 70
    32
  0
VERTEX
  8
T68SSILL
 62
2
 10
6665.517
 20
-11419.956
 30
-1553.810
 70
    32
  0
SEQEND
  8
T68SSILL
  0
POLYLINE
  8
T68SSILL
 62
2
 66
     1
 70
     9
  0
VERTEX
  8
T68SSILL
 62
2
 10
7068.556
 20
-10901.843
 30
-1554.356
 70
    32
  0
VERTEX
  8
T68SSILL
 62
2
 10
7079.768
 20
-10903.928
 30
-1554.320
 70
    32
  0
VERTEX
  8
T68SSILL
 62
2
 10
7063.212
 20
-10833.369
 30
-1554.577
 70
    32
  0
VERTEX
  8
T68SSILL
 62
2
 10
7051.024
 20
-10804.257
 30
-1554.698
 70
    32
  0
VERTEX
  8
T68SSILL
 62
2
 10
7040.424
 20
-10802.289
 30
-1554.735
 70
    32
  0
VERTEX
  8
T68SSILL
 62
2
 10
7026.513
 20
-10807.999
 30
-1554.755
 70
    32
  0
VERTEX
  8
T68SSILL
 62
2
 10
7004.348
 20
-10811.747
 30
-1554.927
 70
    32
  0
VERTEX
  8
T68SSILL
 62
2
 10
7008.619
 20
-10816.943
 30
-1554.883
 70
    32
  0
VERTEX
  8
T68SSILL
 62
2
 10
7014.333
 20
-10819.244
 30
-1554.810
 70
    32
  0
VERTEX
  8
T68SSILL
 62
2
 10
7023.491
 20
-10812.179
 30
-1554.737
 70
    32
  0
VERTEX
  8
T68SSILL
 62
2
 10
7041.335
 20
-10827.337
 30
-1554.658
 70
    32
  0
VERTEX
  8
T68SSILL
 62
2
 10
7033.484
 20
-10850.356
 30
-1554.635
 70
    32
  0
VERTEX
  8
T68SSILL
 62
2
 10
7067.009
 20
-10896.978
 30
-1554.377
 70
    32
  0
SEQEND
  8
T68SSILL
  0
POLYLINE
  8
T68SSILL
 62
2
 66
     1
 70
     9
  0
VERTEX
  8
T68SSILL
 62
2
 10
5281.079
 20
-10351.770
 30
-1555.954
 70
    32
  0
VERTEX
  8
T68SSILL
 62
2
 10
5338.252
 20
-10310.280
 30
-1556.183
 70
    32
  0
VERTEX
  8
T68SSILL
 62
2
 10
5157.186
 20
-10281.623
 30
-1556.011
 70
    32
  0
VERTEX
  8
T68SSILL
 62
2
 10
5206.243
 20
-10349.608
 30
-1555.757
 70
    32
  0
VERTEX
  8
T68SSILL
 62
2
 10
5212.826
 20
-10356.793
 30
-1555.735
 70
    32
  0
VERTEX
  8
T68SSILL
 62
2
 10
5221.553
 20
-10363.192
 30
-1555.728
 70
    32
  0
VERTEX
  8
T68SSILL
 62
2
 10
5231.182
 20
-10367.533
 30
-1555.738
 70
    32
  0
VERTEX
  8
T68SSILL
 62
2
 10
5247.853
 20
-10368.104
 30
-1555.801
 70
    32
  0
VERTEX
  8
T68SSILL
 62
2
 10
5263.237
 20
-10363.423
 30
-1555.879
 70
    32
  0
VERTEX
  8
T68SSILL
 62
2
 10
5271.621
 20
-10357.604
 30
-1555.916
 70
    32
  0
SEQEND
  8
T68SSILL
  0
POLYLINE
  8
T68SSILL
 62
2
 66
     1
 70
     9
  0
VERTEX
  8
T68SSILL
 62
2
 10
5701.107
 20
-10060.406
 30
-1557.490
 70
    32
  0
VERTEX
  8
T68SSILL
 62
2
 10
5649.066
 20
-10098.635
 30
-1557.294
 70
    32
  0
VERTEX
  8
T68SSILL
 62
2
 10
5717.519
 20
-10116.774
 30
-1557.316
 70
    32
  0
VERTEX
  8
T68SSILL
 62
2
 10
5710.682
 20
-10107.279
 30
-1557.340
 70
    32
  0
VERTEX
  8
T68SSILL
 62
2
 10
5704.197
 20
-10093.303
 30
-1557.380
 70
    32
  0
VERTEX
  8
T68SSILL
 62
2
 10
5701.770
 20
-10076.081
 30
-1557.437
 70
    32
  0
VERTEX
  8
T68SSILL
 62
2
 10
5703.992
 20
-10063.207
 30
-1557.484
 70
    32
  0
SEQEND
  8
T68SSILL
  0
POLYLINE
  8
T68SSILL
 62
2
 66
     1
 70
     9
  0
VERTEX
  8
T68SSILL
 62
2
 10
4276.959
 20
-9681.122
 30
-1552.368
 70
    32
  0
VERTEX
  8
T68SSILL
 62
2
 10
4254.738
 20
-9688.055
 30
-1552.293
 70
    32
  0
VERTEX
  8
T68SSILL
 62
2
 10
4257.193
 20
-9697.205
 30
-1552.315
 70
    32
  0
VERTEX
  8
T68SSILL
 62
2
 10
4266.565
 20
-9693.711
 30
-1552.346
 70
    32
  0
VERTEX
  8
T68SSILL
 62
2
 10
4277.727
 20
-9683.727
 30
-1552.374
 70
    32
  0
SEQEND
  8
T68SSILL
  0
POLYLINE
  8
T68SSILL
 62
2
 66
     1
 70
     9
  0
VERTEX
  8
T68SSILL
 62
2
 10
1855.284
 20
-8252.286
 30
-1535.961
 70
    32
  0
VERTEX
  8
T68SSILL
 62
2
 10
1867.185
 20
-8277.214
 30
-1536.075
 70
    32
  0
VERTEX
  8
T68SSILL
 62
2
 10
1874.183
 20
-8256.651
 30
-1535.631
 70
    32
  0
VERTEX
  8
T68SSILL
 62
2
 10
1864.589
 20
-8251.093
 30
-1535.750
 70
    32
  0
VERTEX
  8
T68SSILL
 62
2
 10
1858.290
 20
-8254.060
 30
-1535.924
 70
    32
  0
VERTEX
  8
T68SSILL
 62
2
 10
1855.966
 20
-8252.146
 30
-1535.944
 70
    32
  0
SEQEND
  8
T68SSILL
  0
POLYLINE
  8
T68SSILL
 62
2
 66
     1
 70
     9
  0
VERTEX
  8
T68SSILL
 62
2
 10
1694.555
 20
-7158.072
 30
-1537.767
 70
    32
  0
VERTEX
  8
T68SSILL
 62
2
 10
1686.498
 20
-7172.009
 30
-1537.867
 70
    32
  0
VERTEX
  8
T68SSILL
 62
2
 10
1686.947
 20
-7184.046
 30
-1537.932
 70
    32
  0
VERTEX
  8
T68SSILL
 62
2
 10
1739.349
 20
-7294.054
 30
-1538.367
 70
    32
  0
VERTEX
  8
T68SSILL
 62
2
 10
1765.023
 20
-7193.044
 30
-1537.584
 70
    32
  0
VERTEX
  8
T68SSILL
 62
2
 10
1761.270
 20
-7169.091
 30
-1537.496
 70
    32
  0
VERTEX
  8
T68SSILL
 62
2
 10
1752.892
 20
-7169.945
 30
-1537.581
 70
    32
  0
VERTEX
  8
T68SSILL
 62
2
 10
1750.300
 20
-7156.241
 30
-1537.535
 70
    32
  0
VERTEX
  8
T68SSILL
 62
2
 10
1759.075
 20
-7155.081
 30
-1537.445
 70
    32
  0
VERTEX
  8
T68SSILL
 62
2
 10
1752.933
 20
-7115.876
 30
-1537.301
 70
    32
  0
VERTEX
  8
T68SSILL
 62
2
 10
1728.161
 20
-7134.371
 30
-1537.535
 70
    32
  0
VERTEX
  8
T68SSILL
 62
2
 10
1727.355
 20
-7145.019
 30
-1537.596
 70
    32
  0
VERTEX
  8
T68SSILL
 62
2
 10
1717.852
 20
-7153.335
 30
-1537.670
 70
    32
  0
VERTEX
  8
T68SSILL
 62
2
 10
1706.219
 20
-7161.490
 30
-1537.750
 70
    32
  0
VERTEX
  8
T68SSILL
 62
2
 10
1694.703
 20
-7158.291
 30
-1537.767
 70
    32
  0
SEQEND
  8
T68SSILL
  0
POLYLINE
  8
T68SSILL
 62
2
 66
     1
 70
     9
  0
VERTEX
  8
T68SSILL
 62
2
 10
1544.657
 20
-6642.685
 30
-1533.365
 70
    32
  0
VERTEX
  8
T68SSILL
 62
2
 10
1527.123
 20
-6655.297
 30
-1533.805
 70
    32
  0
VERTEX
  8
T68SSILL
 62
2
 10
1521.279
 20
-6644.187
 30
-1533.813
 70
    32
  0
VERTEX
  8
T68SSILL
 62
2
 10
1522.478
 20
-6642.220
 30
-1533.773
 70
    32
  0
VERTEX
  8
T68SSILL
 62
2
 10
1519.290
 20
-6624.479
 30
-1533.672
 70
    32
  0
VERTEX
  8
T68SSILL
 62
2
 10
1519.677
 20
-6617.946
 30
-1533.606
 70
    32
  0
VERTEX
  8
T68SSILL
 62
2
 10
1528.665
 20
-6614.786
 30
-1533.410
 70
    32
  0
VERTEX
  8
T68SSILL
 62
2
 10
1525.652
 20
-6595.930
 30
-1533.296
 70
    32
  0
VERTEX
  8
T68SSILL
 62
2
 10
1513.050
 20
-6596.244
 30
-1533.533
 70
    32
  0
VERTEX
  8
T68SSILL
 62
2
 10
1498.710
 20
-6538.601
 30
-1533.279
 70
    32
  0
VERTEX
  8
T68SSILL
 62
2
 10
1534.493
 20
-6583.972
 30
-1533.263
 70
    32
  0
VERTEX
  8
T68SSILL
 62
2
 10
1541.447
 20
-6606.014
 30
-1533.309
 70
    32
  0
VERTEX
  8
T68SSILL
 62
2
 10
1544.682
 20
-6642.667
 30
-1533.364
 70
    32
  0
SEQEND
  8
T68SSILL
  0
POLYLINE
  8
T68SSILL
 62
2
 66
     1
 70
     9
  0
VERTEX
  8
T68SSILL
 62
2
 10
1234.384
 20
-6380.603
 30
-1533.853
 70
    32
  0
VERTEX
  8
T68SSILL
 62
2
 10
1224.837
 20
-6379.998
 30
-1533.922
 70
    32
  0
VERTEX
  8
T68SSILL
 62
2
 10
1212.219
 20
-6376.034
 30
-1533.992
 70
    32
  0
VERTEX
  8
T68SSILL
 62
2
 10
1208.227
 20
-6380.831
 30
-1534.057
 70
    32
  0
VERTEX
  8
T68SSILL
 62
2
 10
1341.130
 20
-6640.412
 30
-1535.183
 70
    32
  0
VERTEX
  8
T68SSILL
 62
2
 10
1353.802
 20
-6653.790
 30
-1535.259
 70
    32
  0
VERTEX
  8
T68SSILL
 62
2
 10
1378.084
 20
-6667.960
 30
-1535.332
 70
    32
  0
VERTEX
  8
T68SSILL
 62
2
 10
1386.343
 20
-6670.744
 30
-1535.354
 70
    32
  0
VERTEX
  8
T68SSILL
 62
2
 10
1426.039
 20
-6675.348
 30
-1535.541
 70
    32
  0
VERTEX
  8
T68SSILL
 62
2
 10
1430.518
 20
-6674.834
 30
-1535.560
 70
    32
  0
VERTEX
  8
T68SSILL
 62
2
 10
1339.080
 20
-6470.109
 30
-1533.709
 70
    32
  0
VERTEX
  8
T68SSILL
 62
2
 10
1331.223
 20
-6463.242
 30
-1533.689
 70
    32
  0
VERTEX
  8
T68SSILL
 62
2
 10
1323.171
 20
-6446.957
 30
-1533.636
 70
    32
  0
VERTEX
  8
T68SSILL
 62
2
 10
1310.424
 20
-6442.113
 30
-1533.700
 70
    32
  0
VERTEX
  8
T68SSILL
 62
2
 10
1309.138
 20
-6436.143
 30
-1533.668
 70
    32
  0
VERTEX
  8
T68SSILL
 62
2
 10
1320.068
 20
-6417.310
 30
-1533.448
 70
    32
  0
VERTEX
  8
T68SSILL
 62
2
 10
1317.723
 20
-6401.475
 30
-1533.354
 70
    32
  0
VERTEX
  8
T68SSILL
 62
2
 10
1322.111
 20
-6396.518
 30
-1533.284
 70
    32
  0
VERTEX
  8
T68SSILL
 62
2
 10
1311.025
 20
-6334.826
 30
-1532.931
 70
    32
  0
VERTEX
  8
T68SSILL
 62
2
 10
1289.023
 20
-6352.551
 30
-1533.228
 70
    32
  0
VERTEX
  8
T68SSILL
 62
2
 10
1248.788
 20
-6378.285
 30
-1533.724
 70
    32
  0
VERTEX
  8
T68SSILL
 62
2
 10
1239.282
 20
-6380.229
 30
-1533.812
 70
    32
  0
SEQEND
  8
T68SSILL
  0
POLYLINE
  8
T68SSILL
 62
2
 66
     1
 70
     9
  0
VERTEX
  8
T68SSILL
 62
2
 10
1448.504
 20
-6681.751
 30
-1535.552
 70
    32
  0
VERTEX
  8
T68SSILL
 62
2
 10
1473.348
 20
-6689.734
 30
-1535.206
 70
    32
  0
VERTEX
  8
T68SSILL
 62
2
 10
1477.710
 20
-6697.141
 30
-1535.224
 70
    32
  0
VERTEX
  8
T68SSILL
 62
2
 10
1472.129
 20
-6706.794
 30
-1535.451
 70
    32
  0
VERTEX
  8
T68SSILL
 62
2
 10
1468.332
 20
-6723.700
 30
-1535.742
 70
    32
  0
SEQEND
  8
T68SSILL
  0
POLYLINE
  8
T68SSILL
 62
2
 66
     1
 70
     9
  0
VERTEX
  8
T68SSILL
 62
2
 10
1438.571
 20
-6327.209
 30
-1531.989
 70
    32
  0
VERTEX
  8
T68SSILL
 62
2
 10
1437.221
 20
-6327.821
 30
-1532.001
 70
    32
  0
VERTEX
  8
T68SSILL
 62
2
 10
1435.544
 20
-6348.831
 30
-1532.190
 70
    32
  0
VERTEX
  8
T68SSILL
 62
2
 10
1438.247
 20
-6359.529
 30
-1532.268
 70
    32
  0
VERTEX
  8
T68SSILL
 62
2
 10
1448.204
 20
-6368.946
 30
-1532.299
 70
    32
  0
VERTEX
  8
T68SSILL
 62
2
 10
1462.419
 20
-6424.838
 30
-1532.709
 70
    32
  0
VERTEX
  8
T68SSILL
 62
2
 10
1432.356
 20
-6412.345
 30
-1532.750
 70
    32
  0
VERTEX
  8
T68SSILL
 62
2
 10
1428.721
 20
-6419.384
 30
-1532.829
 70
    32
  0
VERTEX
  8
T68SSILL
 62
2
 10
1464.709
 20
-6435.339
 30
-1532.787
 70
    32
  0
VERTEX
  8
T68SSILL
 62
2
 10
1513.674
 20
-6631.209
 30
-1533.837
 70
    32
  0
VERTEX
  8
T68SSILL
 62
2
 10
1514.470
 20
-6647.626
 30
-1533.971
 70
    32
  0
VERTEX
  8
T68SSILL
 62
2
 10
1512.277
 20
-6656.793
 30
-1534.095
 70
    32
  0
VERTEX
  8
T68SSILL
 62
2
 10
1508.682
 20
-6662.657
 30
-1534.215
 70
    32
  0
VERTEX
  8
T68SSILL
 62
2
 10
1505.213
 20
-6664.944
 30
-1534.302
 70
    32
  0
VERTEX
  8
T68SSILL
 62
2
 10
1503.045
 20
-6671.918
 30
-1534.433
 70
    32
  0
VERTEX
  8
T68SSILL
 62
2
 10
1497.948
 20
-6675.115
 30
-1534.568
 70
    32
  0
VERTEX
  8
T68SSILL
 62
2
 10
1478.367
 20
-6681.758
 30
-1535.010
 70
    32
  0
VERTEX
  8
T68SSILL
 62
2
 10
1456.147
 20
-6676.797
 30
-1535.348
 70
    32
  0
VERTEX
  8
T68SSILL
 62
2
 10
1448.585
 20
-6671.599
 30
-1535.418
 70
    32
  0
VERTEX
  8
T68SSILL
 62
2
 10
1438.117
 20
-6661.103
 30
-1535.469
 70
    32
  0
VERTEX
  8
T68SSILL
 62
2
 10
1405.383
 20
-6592.209
 30
-1534.756
 70
    32
  0
VERTEX
  8
T68SSILL
 62
2
 10
1410.754
 20
-6584.558
 30
-1534.645
 70
    32
  0
VERTEX
  8
T68SSILL
 62
2
 10
1425.141
 20
-6578.171
 30
-1534.518
 70
    32
  0
VERTEX
  8
T68SSILL
 62
2
 10
1422.339
 20
-6571.784
 30
-1534.452
 70
    32
  0
VERTEX
  8
T68SSILL
 62
2
 10
1406.831
 20
-6577.030
 30
-1534.568
 70
    32
  0
VERTEX
  8
T68SSILL
 62
2
 10
1397.970
 20
-6576.606
 30
-1534.594
 70
    32
  0
VERTEX
  8
T68SSILL
 62
2
 10
1356.494
 20
-6489.312
 30
-1533.787
 70
    32
  0
VERTEX
  8
T68SSILL
 62
2
 10
1360.290
 20
-6480.839
 30
-1533.696
 70
    32
  0
VERTEX
  8
T68SSILL
 62
2
 10
1353.998
 20
-6468.762
 30
-1533.623
 70
    32
  0
VERTEX
  8
T68SSILL
 62
2
 10
1344.292
 20
-6463.125
 30
-1533.623
 70
    32
  0
VERTEX
  8
T68SSILL
 62
2
 10
1339.306
 20
-6452.837
 30
-1533.560
 70
    32
  0
VERTEX
  8
T68SSILL
 62
2
 10
1320.478
 20
-6342.441
 30
-1532.912
 70
    32
  0
VERTEX
  8
T68SSILL
 62
2
 10
1323.916
 20
-6326.114
 30
-1532.769
 70
    32
  0
VERTEX
  8
T68SSILL
 62
2
 10
1329.518
 20
-6315.008
 30
-1532.646
 70
    32
  0
VERTEX
  8
T68SSILL
 62
2
 10
1333.802
 20
-6309.908
 30
-1532.577
 70
    32
  0
VERTEX
  8
T68SSILL
 62
2
 10
1349.920
 20
-6298.035
 30
-1532.367
 70
    32
  0
VERTEX
  8
T68SSILL
 62
2
 10
1369.896
 20
-6298.810
 30
-1532.217
 70
    32
  0
VERTEX
  8
T68SSILL
 62
2
 10
1370.918
 20
-6282.930
 30
-1532.116
 70
    32
  0
VERTEX
  8
T68SSILL
 62
2
 10
1418.771
 20
-6250.529
 30
-1531.921
 70
    32
  0
VERTEX
  8
T68SSILL
 62
2
 10
1438.591
 20
-6327.172
 30
-1531.989
 70
    32
  0
SEQEND
  8
T68SSILL
  0
POLYLINE
  8
T68SSILL
 62
2
 66
     1
 70
     9
  0
VERTEX
  8
T68SSILL
 62
2
 10
1212.110
 20
-5898.686
 30
-1532.892
 70
    32
  0
VERTEX
  8
T68SSILL
 62
2
 10
1203.249
 20
-5911.677
 30
-1532.948
 70
    32
  0
VERTEX
  8
T68SSILL
 62
2
 10
1151.573
 20
-5948.532
 30
-1532.565
 70
    32
  0
VERTEX
  8
T68SSILL
 62
2
 10
1147.329
 20
-5952.965
 30
-1532.533
 70
    32
  0
VERTEX
  8
T68SSILL
 62
2
 10
1141.534
 20
-5964.484
 30
-1532.484
 70
    32
  0
VERTEX
  8
T68SSILL
 62
2
 10
1132.366
 20
-5972.209
 30
-1532.416
 70
    32
  0
VERTEX
  8
T68SSILL
 62
2
 10
1125.708
 20
-5980.457
 30
-1532.373
 70
    32
  0
VERTEX
  8
T68SSILL
 62
2
 10
1142.676
 20
-6092.477
 30
-1532.474
 70
    32
  0
VERTEX
  8
T68SSILL
 62
2
 10
1148.476
 20
-6102.435
 30
-1532.484
 70
    32
  0
VERTEX
  8
T68SSILL
 62
2
 10
1161.879
 20
-6112.516
 30
-1532.506
 70
    32
  0
VERTEX
  8
T68SSILL
 62
2
 10
1178.766
 20
-6118.151
 30
-1532.534
 70
    32
  0
VERTEX
  8
T68SSILL
 62
2
 10
1196.046
 20
-6117.822
 30
-1532.562
 70
    32
  0
VERTEX
  8
T68SSILL
 62
2
 10
1243.721
 20
-6109.400
 30
-1532.640
 70
    32
  0
VERTEX
  8
T68SSILL
 62
2
 10
1244.806
 20
-6117.351
 30
-1532.642
 70
    32
  0
VERTEX
  8
T68SSILL
 62
2
 10
1192.653
 20
-6126.287
 30
-1532.557
 70
    32
  0
VERTEX
  8
T68SSILL
 62
2
 10
1182.461
 20
-6126.771
 30
-1532.540
 70
    32
  0
VERTEX
  8
T68SSILL
 62
2
 10
1167.818
 20
-6123.453
 30
-1532.516
 70
    32
  0
VERTEX
  8
T68SSILL
 62
2
 10
1148.647
 20
-6112.951
 30
-1532.485
 70
    32
  0
VERTEX
  8
T68SSILL
 62
2
 10
1145.624
 20
-6115.574
 30
-1532.480
 70
    32
  0
VERTEX
  8
T68SSILL
 62
2
 10
1182.040
 20
-6332.316
 30
-1533.915
 70
    32
  0
VERTEX
  8
T68SSILL
 62
2
 10
1188.659
 20
-6344.394
 30
-1533.950
 70
    32
  0
VERTEX
  8
T68SSILL
 62
2
 10
1199.359
 20
-6352.582
 30
-1533.925
 70
    32
  0
VERTEX
  8
T68SSILL
 62
2
 10
1203.932
 20
-6360.918
 30
-1533.949
 70
    32
  0
VERTEX
  8
T68SSILL
 62
2
 10
1211.283
 20
-6365.187
 30
-1533.922
 70
    32
  0
VERTEX
  8
T68SSILL
 62
2
 10
1223.437
 20
-6369.257
 30
-1533.857
 70
    32
  0
VERTEX
  8
T68SSILL
 62
2
 10
1233.494
 20
-6369.511
 30
-1533.780
 70
    32
  0
VERTEX
  8
T68SSILL
 62
2
 10
1246.728
 20
-6367.678
 30
-1533.665
 70
    32
  0
VERTEX
  8
T68SSILL
 62
2
 10
1279.659
 20
-6348.167
 30
-1533.270
 70
    32
  0
VERTEX
  8
T68SSILL
 62
2
 10
1309.507
 20
-6326.378
 30
-1532.883
 70
    32
  0
VERTEX
  8
T68SSILL
 62
2
 10
1295.353
 20
-6247.607
 30
-1533.033
 70
    32
  0
VERTEX
  8
T68SSILL
 62
2
 10
1288.752
 20
-6241.567
 30
-1533.151
 70
    32
  0
VERTEX
  8
T68SSILL
 62
2
 10
1285.044
 20
-6228.373
 30
-1533.313
 70
    32
  0
VERTEX
  8
T68SSILL
 62
2
 10
1273.383
 20
-6225.917
 30
-1533.312
 70
    32
  0
VERTEX
  8
T68SSILL
 62
2
 10
1270.472
 20
-6214.115
 30
-1533.150
 70
    32
  0
VERTEX
  8
T68SSILL
 62
2
 10
1273.796
 20
-6207.850
 30
-1533.069
 70
    32
  0
VERTEX
  8
T68SSILL
 62
2
 10
1273.067
 20
-6203.996
 30
-1533.017
 70
    32
  0
VERTEX
  8
T68SSILL
 62
2
 10
1279.447
 20
-6202.520
 30
-1533.004
 70
    32
  0
VERTEX
  8
T68SSILL
 62
2
 10
1276.098
 20
-6186.212
 30
-1532.780
 70
    32
  0
VERTEX
  8
T68SSILL
 62
2
 10
1271.856
 20
-6148.843
 30
-1532.662
 70
    32
  0
VERTEX
  8
T68SSILL
 62
2
 10
1264.615
 20
-6145.683
 30
-1532.658
 70
    32
  0
VERTEX
  8
T68SSILL
 62
2
 10
1261.099
 20
-6146.275
 30
-1532.653
 70
    32
  0
VERTEX
  8
T68SSILL
 62
2
 10
1261.225
 20
-6139.385
 30
-1532.662
 70
    32
  0
VERTEX
  8
T68SSILL
 62
2
 10
1258.441
 20
-6130.011
 30
-1532.664
 70
    32
  0
VERTEX
  8
T68SSILL
 62
2
 10
1267.407
 20
-6124.565
 30
-1532.679
 70
    32
  0
VERTEX
  8
T68SSILL
 62
2
 10
1266.021
 20
-6109.895
 30
-1532.676
 70
    32
  0
VERTEX
  8
T68SSILL
 62
2
 10
1270.263
 20
-6103.763
 30
-1532.683
 70
    32
  0
VERTEX
  8
T68SSILL
 62
2
 10
1226.989
 20
-5859.093
 30
-1532.627
 70
    32
  0
SEQEND
  8
T68SSILL
  0
POLYLINE
  8
T68SSILL
 62
2
 66
     1
 70
     9
  0
VERTEX
  8
T68SSILL
 62
2
 10
1351.393
 20
-6010.498
 30
-1533.247
 70
    32
  0
VERTEX
  8
T68SSILL
 62
2
 10
1352.128
 20
-6017.434
 30
-1533.209
 70
    32
  0
VERTEX
  8
T68SSILL
 62
2
 10
1359.213
 20
-6024.667
 30
-1533.187
 70
    32
  0
VERTEX
  8
T68SSILL
 62
2
 10
1329.161
 20
-6054.714
 30
-1532.937
 70
    32
  0
VERTEX
  8
T68SSILL
 62
2
 10
1312.594
 20
-6067.024
 30
-1532.847
 70
    32
  0
VERTEX
  8
T68SSILL
 62
2
 10
1304.473
 20
-6059.352
 30
-1532.868
 70
    32
  0
VERTEX
  8
T68SSILL
 62
2
 10
1297.702
 20
-6056.836
 30
-1532.867
 70
    32
  0
VERTEX
  8
T68SSILL
 62
2
 10
1292.879
 20
-6058.492
 30
-1532.850
 70
    32
  0
VERTEX
  8
T68SSILL
 62
2
 10
1288.981
 20
-6063.969
 30
-1532.817
 70
    32
  0
VERTEX
  8
T68SSILL
 62
2
 10
1303.612
 20
-6090.028
 30
-1532.737
 70
    32
  0
VERTEX
  8
T68SSILL
 62
2
 10
1321.679
 20
-6114.785
 30
-1532.763
 70
    32
  0
VERTEX
  8
T68SSILL
 62
2
 10
1330.479
 20
-6119.329
 30
-1532.768
 70
    32
  0
VERTEX
  8
T68SSILL
 62
2
 10
1336.149
 20
-6113.875
 30
-1532.781
 70
    32
  0
VERTEX
  8
T68SSILL
 62
2
 10
1334.321
 20
-6107.314
 30
-1532.787
 70
    32
  0
VERTEX
  8
T68SSILL
 62
2
 10
1364.290
 20
-6086.320
 30
-1532.853
 70
    32
  0
VERTEX
  8
T68SSILL
 62
2
 10
1369.894
 20
-6087.783
 30
-1532.857
 70
    32
  0
VERTEX
  8
T68SSILL
 62
2
 10
1378.971
 20
-6098.680
 30
-1532.850
 70
    32
  0
VERTEX
  8
T68SSILL
 62
2
 10
1410.986
 20
-6217.172
 30
-1532.317
 70
    32
  0
VERTEX
  8
T68SSILL
 62
2
 10
1410.634
 20
-6225.105
 30
-1532.243
 70
    32
  0
VERTEX
  8
T68SSILL
 62
2
 10
1406.533
 20
-6242.025
 30
-1532.112
 70
    32
  0
VERTEX
  8
T68SSILL
 62
2
 10
1397.404
 20
-6254.609
 30
-1532.068
 70
    32
  0
VERTEX
  8
T68SSILL
 62
2
 10
1391.954
 20
-6259.463
 30
-1532.068
 70
    32
  0
VERTEX
  8
T68SSILL
 62
2
 10
1317.122
 20
-6313.198
 30
-1532.730
 70
    32
  0
VERTEX
  8
T68SSILL
 62
2
 10
1314.861
 20
-6312.655
 30
-1532.743
 70
    32
  0
VERTEX
  8
T68SSILL
 62
2
 10
1297.200
 20
-6214.676
 30
-1533.186
 70
    32
  0
VERTEX
  8
T68SSILL
 62
2
 10
1308.415
 20
-6206.602
 30
-1533.089
 70
    32
  0
VERTEX
  8
T68SSILL
 62
2
 10
1303.290
 20
-6198.828
 30
-1532.979
 70
    32
  0
VERTEX
  8
T68SSILL
 62
2
 10
1295.659
 20
-6203.848
 30
-1533.039
 70
    32
  0
VERTEX
  8
T68SSILL
 62
2
 10
1295.069
 20
-6202.806
 30
-1533.024
 70
    32
  0
VERTEX
  8
T68SSILL
 62
2
 10
1242.915
 20
-5905.346
 30
-1532.881
 70
    32
  0
VERTEX
  8
T68SSILL
 62
2
 10
1247.474
 20
-5903.703
 30
-1532.863
 70
    32
  0
VERTEX
  8
T68SSILL
 62
2
 10
1277.554
 20
-5921.605
 30
-1532.822
 70
    32
  0
VERTEX
  8
T68SSILL
 62
2
 10
1268.242
 20
-5937.055
 30
-1532.960
 70
    32
  0
VERTEX
  8
T68SSILL
 62
2
 10
1268.955
 20
-5938.711
 30
-1532.962
 70
    32
  0
VERTEX
  8
T68SSILL
 62
2
 10
1272.268
 20
-5940.398
 30
-1532.959
 70
    32
  0
VERTEX
  8
T68SSILL
 62
2
 10
1281.845
 20
-5939.801
 30
-1532.949
 70
    32
  0
VERTEX
  8
T68SSILL
 62
2
 10
1285.156
 20
-5942.886
 30
-1532.982
 70
    32
  0
VERTEX
  8
T68SSILL
 62
2
 10
1293.147
 20
-5941.236
 30
-1532.960
 70
    32
  0
VERTEX
  8
T68SSILL
 62
2
 10
1295.442
 20
-5939.115
 30
-1532.936
 70
    32
  0
VERTEX
  8
T68SSILL
 62
2
 10
1305.159
 20
-5938.099
 30
-1532.921
 70
    32
  0
VERTEX
  8
T68SSILL
 62
2
 10
1335.746
 20
-5957.047
 30
-1533.120
 70
    32
  0
VERTEX
  8
T68SSILL
 62
2
 10
1345.561
 20
-5971.109
 30
-1533.272
 70
    32
  0
VERTEX
  8
T68SSILL
 62
2
 10
1355.442
 20
-6003.468
 30
-1533.300
 70
    32
  0
SEQEND
  8
T68SSILL
  0
POLYLINE
  8
T68SSILL
 62
2
 66
     1
 70
     9
  0
VERTEX
  8
T68SSILL
 62
2
 10
1122.881
 20
-5958.780
 30
-1532.361
 70
    32
  0
VERTEX
  8
T68SSILL
 62
2
 10
1119.639
 20
-5958.440
 30
-1532.339
 70
    32
  0
VERTEX
  8
T68SSILL
 62
2
 10
1117.687
 20
-5956.350
 30
-1532.328
 70
    32
  0
VERTEX
  8
T68SSILL
 62
2
 10
1108.711
 20
-5900.507
 30
-1532.311
 70
    32
  0
VERTEX
  8
T68SSILL
 62
2
 10
1114.206
 20
-5905.812
 30
-1532.344
 70
    32
  0
VERTEX
  8
T68SSILL
 62
2
 10
1128.346
 20
-5914.779
 30
-1532.434
 70
    32
  0
VERTEX
  8
T68SSILL
 62
2
 10
1139.270
 20
-5920.184
 30
-1532.504
 70
    32
  0
VERTEX
  8
T68SSILL
 62
2
 10
1159.679
 20
-5925.667
 30
-1532.639
 70
    32
  0
VERTEX
  8
T68SSILL
 62
2
 10
1163.142
 20
-5930.127
 30
-1532.659
 70
    32
  0
VERTEX
  8
T68SSILL
 62
2
 10
1137.204
 20
-5949.966
 30
-1532.466
 70
    32
  0
VERTEX
  8
T68SSILL
 62
2
 10
1133.356
 20
-5947.037
 30
-1532.442
 70
    32
  0
VERTEX
  8
T68SSILL
 62
2
 10
1127.788
 20
-5951.418
 30
-1532.400
 70
    32
  0
VERTEX
  8
T68SSILL
 62
2
 10
1127.820
 20
-5956.444
 30
-1532.397
 70
    32
  0
VERTEX
  8
T68SSILL
 62
2
 10
1126.074
 20
-5957.649
 30
-1532.384
 70
    32
  0
SEQEND
  8
T68SSILL
  0
POLYLINE
  8
T68SSILL
 62
2
 66
     1
 70
     9
  0
VERTEX
  8
T68SSILL
 62
2
 10
1158.383
 20
-5567.293
 30
-1531.132
 70
    32
  0
VERTEX
  8
T68SSILL
 62
2
 10
1154.727
 20
-5558.142
 30
-1531.158
 70
    32
  0
VERTEX
  8
T68SSILL
 62
2
 10
1159.480
 20
-5551.850
 30
-1531.148
 70
    32
  0
VERTEX
  8
T68SSILL
 62
2
 10
1156.390
 20
-5512.403
 30
-1531.210
 70
    32
  0
VERTEX
  8
T68SSILL
 62
2
 10
1151.001
 20
-5508.953
 30
-1531.235
 70
    32
  0
VERTEX
  8
T68SSILL
 62
2
 10
1147.600
 20
-5493.516
 30
-1531.267
 70
    32
  0
VERTEX
  8
T68SSILL
 62
2
 10
1151.150
 20
-5488.271
 30
-1531.261
 70
    32
  0
VERTEX
  8
T68SSILL
 62
2
 10
1157.748
 20
-5471.484
 30
-1531.257
 70
    32
  0
VERTEX
  8
T68SSILL
 62
2
 10
1147.791
 20
-5419.643
 30
-1531.257
 70
    32
  0
VERTEX
  8
T68SSILL
 62
2
 10
1078.374
 20
-5467.064
 30
-1531.435
 70
    32
  0
VERTEX
  8
T68SSILL
 62
2
 10
1068.766
 20
-5475.324
 30
-1531.465
 70
    32
  0
VERTEX
  8
T68SSILL
 62
2
 10
1062.285
 20
-5483.455
 30
-1531.491
 70
    32
  0
VERTEX
  8
T68SSILL
 62
2
 10
1054.679
 20
-5498.475
 30
-1531.537
 70
    32
  0
VERTEX
  8
T68SSILL
 62
2
 10
1048.449
 20
-5522.296
 30
-1531.601
 70
    32
  0
VERTEX
  8
T68SSILL
 62
2
 10
1069.239
 20
-5663.313
 30
-1531.669
 70
    32
  0
VERTEX
  8
T68SSILL
 62
2
 10
1073.620
 20
-5663.603
 30
-1531.668
 70
    32
  0
VERTEX
  8
T68SSILL
 62
2
 10
1080.190
 20
-5646.621
 30
-1531.462
 70
    32
  0
VERTEX
  8
T68SSILL
 62
2
 10
1086.265
 20
-5648.738
 30
-1531.482
 70
    32
  0
VERTEX
  8
T68SSILL
 62
2
 10
1080.955
 20
-5673.422
 30
-1531.757
 70
    32
  0
VERTEX
  8
T68SSILL
 62
2
 10
1077.912
 20
-5681.102
 30
-1531.807
 70
    32
  0
VERTEX
  8
T68SSILL
 62
2
 10
1075.556
 20
-5697.204
 30
-1531.906
 70
    32
  0
VERTEX
  8
T68SSILL
 62
2
 10
1103.649
 20
-5868.428
 30
-1532.302
 70
    32
  0
VERTEX
  8
T68SSILL
 62
2
 10
1110.243
 20
-5886.156
 30
-1532.333
 70
    32
  0
VERTEX
  8
T68SSILL
 62
2
 10
1118.135
 20
-5895.696
 30
-1532.379
 70
    32
  0
VERTEX
  8
T68SSILL
 62
2
 10
1128.362
 20
-5904.585
 30
-1532.442
 70
    32
  0
VERTEX
  8
T68SSILL
 62
2
 10
1149.229
 20
-5913.824
 30
-1532.577
 70
    32
  0
VERTEX
  8
T68SSILL
 62
2
 10
1160.944
 20
-5915.574
 30
-1532.656
 70
    32
  0
VERTEX
  8
T68SSILL
 62
2
 10
1186.447
 20
-5914.254
 30
-1532.831
 70
    32
  0
VERTEX
  8
T68SSILL
 62
2
 10
1197.869
 20
-5904.973
 30
-1532.917
 70
    32
  0
VERTEX
  8
T68SSILL
 62
2
 10
1203.155
 20
-5898.316
 30
-1532.905
 70
    32
  0
VERTEX
  8
T68SSILL
 62
2
 10
1223.894
 20
-5845.118
 30
-1532.547
 70
    32
  0
VERTEX
  8
T68SSILL
 62
2
 10
1207.482
 20
-5754.305
 30
-1532.030
 70
    32
  0
VERTEX
  8
T68SSILL
 62
2
 10
1188.604
 20
-5719.145
 30
-1531.863
 70
    32
  0
VERTEX
  8
T68SSILL
 62
2
 10
1184.881
 20
-5717.328
 30
-1531.859
 70
    32
  0
VERTEX
  8
T68SSILL
 62
2
 10
1180.790
 20
-5719.624
 30
-1531.878
 70
    32
  0
VERTEX
  8
T68SSILL
 62
2
 10
1177.574
 20
-5704.917
 30
-1531.800
 70
    32
  0
VERTEX
  8
T68SSILL
 62
2
 10
1182.244
 20
-5703.612
 30
-1531.785
 70
    32
  0
VERTEX
  8
T68SSILL
 62
2
 10
1189.171
 20
-5691.635
 30
-1531.706
 70
    32
  0
VERTEX
  8
T68SSILL
 62
2
 10
1188.964
 20
-5686.848
 30
-1531.680
 70
    32
  0
VERTEX
  8
T68SSILL
 62
2
 10
1193.283
 20
-5675.283
 30
-1531.607
 70
    32
  0
VERTEX
  8
T68SSILL
 62
2
 10
1177.333
 20
-5585.684
 30
-1531.038
 70
    32
  0
VERTEX
  8
T68SSILL
 62
2
 10
1171.565
 20
-5582.925
 30
-1531.063
 70
    32
  0
VERTEX
  8
T68SSILL
 62
2
 10
1166.080
 20
-5574.075
 30
-1531.095
 70
    32
  0
VERTEX
  8
T68SSILL
 62
2
 10
1161.309
 20
-5572.448
 30
-1531.115
 70
    32
  0
VERTEX
  8
T68SSILL
 62
2
 10
1159.899
 20
-5570.102
 30
-1531.123
 70
    32
  0
SEQEND
  8
T68SSILL
  0
POLYLINE
  8
T68SSILL
 62
2
 66
     1
 70
     9
  0
VERTEX
  8
T68SSILL
 62
2
 10
1239.673
 20
-5359.776
 30
-1531.028
 70
    32
  0
VERTEX
  8
T68SSILL
 62
2
 10
1242.946
 20
-5376.267
 30
-1531.061
 70
    32
  0
VERTEX
  8
T68SSILL
 62
2
 10
1238.998
 20
-5545.024
 30
-1530.860
 70
    32
  0
VERTEX
  8
T68SSILL
 62
2
 10
1236.078
 20
-5548.546
 30
-1530.866
 70
    32
  0
VERTEX
  8
T68SSILL
 62
2
 10
1233.030
 20
-5557.302
 30
-1530.866
 70
    32
  0
VERTEX
  8
T68SSILL
 62
2
 10
1242.600
 20
-5569.111
 30
-1530.815
 70
    32
  0
VERTEX
  8
T68SSILL
 62
2
 10
1248.129
 20
-5584.682
 30
-1530.775
 70
    32
  0
VERTEX
  8
T68SSILL
 62
2
 10
1274.831
 20
-5687.952
 30
-1531.256
 70
    32
  0
VERTEX
  8
T68SSILL
 62
2
 10
1270.250
 20
-5697.126
 30
-1531.380
 70
    32
  0
VERTEX
  8
T68SSILL
 62
2
 10
1271.739
 20
-5705.313
 30
-1531.454
 70
    32
  0
VERTEX
  8
T68SSILL
 62
2
 10
1271.003
 20
-5714.932
 30
-1531.557
 70
    32
  0
VERTEX
  8
T68SSILL
 62
2
 10
1273.740
 20
-5724.613
 30
-1531.637
 70
    32
  0
VERTEX
  8
T68SSILL
 62
2
 10
1285.840
 20
-5734.348
 30
-1531.654
 70
    32
  0
VERTEX
  8
T68SSILL
 62
2
 10
1339.668
 20
-5950.903
 30
-1533.050
 70
    32
  0
VERTEX
  8
T68SSILL
 62
2
 10
1248.110
 20
-5896.067
 30
-1532.815
 70
    32
  0
VERTEX
  8
T68SSILL
 62
2
 10
1239.161
 20
-5886.994
 30
-1532.776
 70
    32
  0
VERTEX
  8
T68SSILL
 62
2
 10
1193.710
 20
-5630.079
 30
-1531.166
 70
    32
  0
VERTEX
  8
T68SSILL
 62
2
 10
1200.420
 20
-5628.005
 30
-1531.136
 70
    32
  0
VERTEX
  8
T68SSILL
 62
2
 10
1196.545
 20
-5605.072
 30
-1530.941
 70
    32
  0
VERTEX
  8
T68SSILL
 62
2
 10
1187.800
 20
-5598.479
 30
-1530.983
 70
    32
  0
VERTEX
  8
T68SSILL
 62
2
 10
1164.853
 20
-5464.099
 30
-1531.240
 70
    32
  0
VERTEX
  8
T68SSILL
 62
2
 10
1164.585
 20
-5446.065
 30
-1531.265
 70
    32
  0
VERTEX
  8
T68SSILL
 62
2
 10
1177.212
 20
-5413.527
 30
-1531.219
 70
    32
  0
VERTEX
  8
T68SSILL
 62
2
 10
1182.957
 20
-5403.869
 30
-1531.188
 70
    32
  0
VERTEX
  8
T68SSILL
 62
2
 10
1195.123
 20
-5390.944
 30
-1531.145
 70
    32
  0
VERTEX
  8
T68SSILL
 62
2
 10
1209.641
 20
-5379.713
 30
-1531.104
 70
    32
  0
SEQEND
  8
T68SSILL
  0
POLYLINE
  8
T68SSILL
 62
2
 66
     1
 70
     9
  0
VERTEX
  8
T68SSILL
 62
2
 10
2021.997
 20
-4738.966
 30
-1529.275
 70
    32
  0
VERTEX
  8
T68SSILL
 62
2
 10
2011.775
 20
-4733.226
 30
-1529.253
 70
    32
  0
VERTEX
  8
T68SSILL
 62
2
 10
1998.694
 20
-4732.378
 30
-1529.214
 70
    32
  0
VERTEX
  8
T68SSILL
 62
2
 10
1993.335
 20
-4734.182
 30
-1529.194
 70
    32
  0
VERTEX
  8
T68SSILL
 62
2
 10
1912.072
 20
-4788.317
 30
-1529.074
 70
    32
  0
VERTEX
  8
T68SSILL
 62
2
 10
1932.330
 20
-4819.535
 30
-1529.281
 70
    32
  0
VERTEX
  8
T68SSILL
 62
2
 10
1938.305
 20
-4818.802
 30
-1529.296
 70
    32
  0
VERTEX
  8
T68SSILL
 62
2
 10
1946.021
 20
-4832.164
 30
-1529.383
 70
    32
  0
VERTEX
  8
T68SSILL
 62
2
 10
1948.909
 20
-4834.251
 30
-1529.401
 70
    32
  0
VERTEX
  8
T68SSILL
 62
2
 10
1957.769
 20
-4852.780
 30
-1529.525
 70
    32
  0
VERTEX
  8
T68SSILL
 62
2
 10
1964.125
 20
-4861.756
 30
-1529.591
 70
    32
  0
VERTEX
  8
T68SSILL
 62
2
 10
1972.279
 20
-4865.708
 30
-1529.633
 70
    32
  0
VERTEX
  8
T68SSILL
 62
2
 10
2065.453
 20
-4804.195
 30
-1529.634
 70
    32
  0
VERTEX
  8
T68SSILL
 62
2
 10
2032.373
 20
-4754.540
 30
-1529.282
 70
    32
  0
SEQEND
  8
T68SSILL
  0
POLYLINE
  8
T68SSILL
 62
2
 66
     1
 70
     9
  0
VERTEX
  8
T68SSILL
 62
2
 10
1826.974
 20
-4876.308
 30
-1529.398
 70
    32
  0
VERTEX
  8
T68SSILL
 62
2
 10
1866.336
 20
-4936.869
 30
-1529.763
 70
    32
  0
VERTEX
  8
T68SSILL
 62
2
 10
1885.991
 20
-4922.905
 30
-1529.735
 70
    32
  0
VERTEX
  8
T68SSILL
 62
2
 10
1892.861
 20
-4914.679
 30
-1529.706
 70
    32
  0
VERTEX
  8
T68SSILL
 62
2
 10
1894.968
 20
-4916.866
 30
-1529.724
 70
    32
  0
VERTEX
  8
T68SSILL
 62
2
 10
1951.248
 20
-4879.852
 30
-1529.659
 70
    32
  0
VERTEX
  8
T68SSILL
 62
2
 10
1936.744
 20
-4865.969
 30
-1529.546
 70
    32
  0
VERTEX
  8
T68SSILL
 62
2
 10
1939.242
 20
-4856.444
 30
-1529.500
 70
    32
  0
VERTEX
  8
T68SSILL
 62
2
 10
1935.273
 20
-4846.604
 30
-1529.436
 70
    32
  0
VERTEX
  8
T68SSILL
 62
2
 10
1926.778
 20
-4833.660
 30
-1529.344
 70
    32
  0
VERTEX
  8
T68SSILL
 62
2
 10
1925.781
 20
-4822.880
 30
-1529.282
 70
    32
  0
VERTEX
  8
T68SSILL
 62
2
 10
1914.902
 20
-4805.920
 30
-1529.163
 70
    32
  0
VERTEX
  8
T68SSILL
 62
2
 10
1894.579
 20
-4799.979
 30
-1529.079
 70
    32
  0
VERTEX
  8
T68SSILL
 62
2
 10
1830.104
 20
-4842.821
 30
-1529.206
 70
    32
  0
VERTEX
  8
T68SSILL
 62
2
 10
1824.863
 20
-4849.845
 30
-1529.245
 70
    32
  0
VERTEX
  8
T68SSILL
 62
2
 10
1823.062
 20
-4856.782
 30
-1529.285
 70
    32
  0
VERTEX
  8
T68SSILL
 62
2
 10
1822.040
 20
-4863.300
 30
-1529.322
 70
    32
  0
VERTEX
  8
T68SSILL
 62
2
 10
1823.337
 20
-4869.955
 30
-1529.360
 70
    32
  0
SEQEND
  8
T68SSILL
  0
POLYLINE
  8
T68SSILL
 62
2
 66
     1
 70
     9
  0
VERTEX
  8
T68SSILL
 62
2
 10
2255.231
 20
-4672.359
 30
-1529.429
 70
    32
  0
VERTEX
  8
T68SSILL
 62
2
 10
2285.922
 20
-4570.888
 30
-1529.268
 70
    32
  0
VERTEX
  8
T68SSILL
 62
2
 10
2276.100
 20
-4549.516
 30
-1529.252
 70
    32
  0
VERTEX
  8
T68SSILL
 62
2
 10
2248.205
 20
-4504.650
 30
-1529.225
 70
    32
  0
VERTEX
  8
T68SSILL
 62
2
 10
2241.632
 20
-4534.612
 30
-1529.268
 70
    32
  0
VERTEX
  8
T68SSILL
 62
2
 10
2248.324
 20
-4538.428
 30
-1529.266
 70
    32
  0
VERTEX
  8
T68SSILL
 62
2
 10
2246.515
 20
-4545.011
 30
-1529.276
 70
    32
  0
VERTEX
  8
T68SSILL
 62
2
 10
2237.925
 20
-4562.733
 30
-1529.306
 70
    32
  0
VERTEX
  8
T68SSILL
 62
2
 10
2219.784
 20
-4610.454
 30
-1529.381
 70
    32
  0
VERTEX
  8
T68SSILL
 62
2
 10
2205.214
 20
-4624.408
 30
-1529.413
 70
    32
  0
VERTEX
  8
T68SSILL
 62
2
 10
2197.238
 20
-4643.548
 30
-1529.444
 70
    32
  0
VERTEX
  8
T68SSILL
 62
2
 10
2198.357
 20
-4656.222
 30
-1529.458
 70
    32
  0
VERTEX
  8
T68SSILL
 62
2
 10
2193.933
 20
-4668.285
 30
-1529.477
 70
    32
  0
VERTEX
  8
T68SSILL
 62
2
 10
2179.906
 20
-4694.910
 30
-1529.523
 70
    32
  0
VERTEX
  8
T68SSILL
 62
2
 10
2176.777
 20
-4698.849
 30
-1529.531
 70
    32
  0
VERTEX
  8
T68SSILL
 62
2
 10
2173.060
 20
-4700.565
 30
-1529.537
 70
    32
  0
VERTEX
  8
T68SSILL
 62
2
 10
2166.184
 20
-4716.391
 30
-1529.563
 70
    32
  0
VERTEX
  8
T68SSILL
 62
2
 10
2170.947
 20
-4722.746
 30
-1529.566
 70
    32
  0
VERTEX
  8
T68SSILL
 62
2
 10
2198.887
 20
-4704.953
 30
-1529.552
 70
    32
  0
VERTEX
  8
T68SSILL
 62
2
 10
2208.729
 20
-4704.000
 30
-1529.568
 70
    32
  0
VERTEX
  8
T68SSILL
 62
2
 10
2228.833
 20
-4691.345
 30
-1529.518
 70
    32
  0
SEQEND
  8
T68SSILL
  0
POLYLINE
  8
T68SSILL
 62
2
 66
     1
 70
     9
  0
VERTEX
  8
T68SSILL
 62
2
 10
2155.159
 20
-4768.127
 30
-1529.698
 70
    32
  0
VERTEX
  8
T68SSILL
 62
2
 10
2148.821
 20
-4757.760
 30
-1529.648
 70
    32
  0
VERTEX
  8
T68SSILL
 62
2
 10
2129.255
 20
-4770.741
 30
-1529.656
 70
    32
  0
VERTEX
  8
T68SSILL
 62
2
 10
2125.617
 20
-4777.168
 30
-1529.672
 70
    32
  0
VERTEX
  8
T68SSILL
 62
2
 10
2130.452
 20
-4783.791
 30
-1529.706
 70
    32
  0
VERTEX
  8
T68SSILL
 62
2
 10
2138.844
 20
-4787.372
 30
-1529.736
 70
    32
  0
VERTEX
  8
T68SSILL
 62
2
 10
2142.988
 20
-4780.767
 30
-1529.720
 70
    32
  0
VERTEX
  8
T68SSILL
 62
2
 10
2145.544
 20
-4779.366
 30
-1529.720
 70
    32
  0
VERTEX
  8
T68SSILL
 62
2
 10
2150.597
 20
-4768.122
 30
-1529.689
 70
    32
  0
VERTEX
  8
T68SSILL
 62
2
 10
2154.802
 20
-4768.104
 30
-1529.697
 70
    32
  0
SEQEND
  8
T68SSILL
  0
POLYLINE
  8
T68SSILL
 62
2
 66
     1
 70
     9
  0
VERTEX
  8
T68SSILL
 62
2
 10
1320.891
 20
-6074.786
 30
-1532.826
 70
    32
  0
VERTEX
  8
T68SSILL
 62
2
 10
1329.649
 20
-6066.201
 30
-1532.883
 70
    32
  0
VERTEX
  8
T68SSILL
 62
2
 10
1360.136
 20
-6043.513
 30
-1533.080
 70
    32
  0
VERTEX
  8
T68SSILL
 62
2
 10
1363.876
 20
-6044.731
 30
-1533.084
 70
    32
  0
VERTEX
  8
T68SSILL
 62
2
 10
1367.889
 20
-6053.536
 30
-1533.044
 70
    32
  0
VERTEX
  8
T68SSILL
 62
2
 10
1368.211
 20
-6058.785
 30
-1533.015
 70
    32
  0
VERTEX
  8
T68SSILL
 62
2
 10
1364.030
 20
-6066.880
 30
-1532.955
 70
    32
  0
VERTEX
  8
T68SSILL
 62
2
 10
1364.264
 20
-6070.657
 30
-1532.933
 70
    32
  0
VERTEX
  8
T68SSILL
 62
2
 10
1339.256
 20
-6090.334
 30
-1532.795
 70
    32
  0
VERTEX
  8
T68SSILL
 62
2
 10
1332.495
 20
-6093.842
 30
-1532.784
 70
    32
  0
VERTEX
  8
T68SSILL
 62
2
 10
1323.024
 20
-6085.072
 30
-1532.781
 70
    32
  0
VERTEX
  8
T68SSILL
 62
2
 10
1319.539
 20
-6076.540
 30
-1532.815
 70
    32
  0
SEQEND
  8
T68SSILL
  0
POLYLINE
  8
T68SSILL
 62
2
 66
     1
 70
     9
  0
VERTEX
  8
T68SSILL
 62
2
 10
1598.672
 20
-6401.725
 30
-1532.856
 70
    32
  0
VERTEX
  8
T68SSILL
 62
2
 10
1596.714
 20
-6394.417
 30
-1532.803
 70
    32
  0
VERTEX
  8
T68SSILL
 62
2
 10
1599.574
 20
-6387.057
 30
-1532.762
 70
    32
  0
VERTEX
  8
T68SSILL
 62
2
 10
1600.330
 20
-6384.585
 30
-1532.747
 70
    32
  0
VERTEX
  8
T68SSILL
 62
2
 10
1598.226
 20
-6377.143
 30
-1532.705
 70
    32
  0
VERTEX
  8
T68SSILL
 62
2
 10
1594.457
 20
-6371.290
 30
-1532.738
 70
    32
  0
VERTEX
  8
T68SSILL
 62
2
 10
1563.197
 20
-6391.851
 30
-1532.700
 70
    32
  0
VERTEX
  8
T68SSILL
 62
2
 10
1564.582
 20
-6395.206
 30
-1532.725
 70
    32
  0
VERTEX
  8
T68SSILL
 62
2
 10
1571.154
 20
-6400.455
 30
-1532.777
 70
    32
  0
SEQEND
  8
T68SSILL
  0
POLYLINE
  8
T68SSILL
 62
2
 66
     1
 70
     9
  0
VERTEX
  8
T68SSILL
 62
2
 10
2038.997
 20
-7967.881
 30
-1539.880
 70
    32
  0
VERTEX
  8
T68SSILL
 62
2
 10
2031.905
 20
-7963.510
 30
-1539.876
 70
    32
  0
VERTEX
  8
T68SSILL
 62
2
 10
2024.407
 20
-7951.115
 30
-1539.948
 70
    32
  0
VERTEX
  8
T68SSILL
 62
2
 10
2013.363
 20
-7949.407
 30
-1539.002
 70
    32
  0
VERTEX
  8
T68SSILL
 62
2
 10
2007.376
 20
-7951.099
 30
-1538.695
 70
    32
  0
VERTEX
  8
T68SSILL
 62
2
 10
2002.112
 20
-7955.602
 30
-1538.366
 70
    32
  0
VERTEX
  8
T68SSILL
 62
2
 10
2002.431
 20
-7960.813
 30
-1538.276
 70
    32
  0
VERTEX
  8
T68SSILL
 62
2
 10
1992.398
 20
-7965.975
 30
-1537.716
 70
    32
  0
VERTEX
  8
T68SSILL
 62
2
 10
1982.766
 20
-7962.571
 30
-1537.345
 70
    32
  0
VERTEX
  8
T68SSILL
 62
2
 10
1976.382
 20
-7968.254
 30
-1536.940
 70
    32
  0
VERTEX
  8
T68SSILL
 62
2
 10
1957.476
 20
-7975.245
 30
-1535.939
 70
    32
  0
VERTEX
  8
T68SSILL
 62
2
 10
1949.934
 20
-7968.943
 30
-1535.721
 70
    32
  0
VERTEX
  8
T68SSILL
 62
2
 10
1941.982
 20
-7974.193
 30
-1535.254
 70
    32
  0
VERTEX
  8
T68SSILL
 62
2
 10
1959.045
 20
-7991.314
 30
-1535.691
 70
    32
  0
VERTEX
  8
T68SSILL
 62
2
 10
1956.677
 20
-7997.589
 30
-1535.458
 70
    32
  0
VERTEX
  8
T68SSILL
 62
2
 10
1948.279
 20
-8006.756
 30
-1534.892
 70
    32
  0
VERTEX
  8
T68SSILL
 62
2
 10
1950.932
 20
-8014.011
 30
-1534.868
 70
    32
  0
VERTEX
  8
T68SSILL
 62
2
 10
1955.118
 20
-8014.383
 30
-1535.052
 70
    32
  0
VERTEX
  8
T68SSILL
 62
2
 10
1983.339
 20
-8026.115
 30
-1536.164
 70
    32
  0
VERTEX
  8
T68SSILL
 62
2
 10
2001.698
 20
-8027.471
 30
-1538.516
 70
    32
  0
VERTEX
  8
T68SSILL
 62
2
 10
2007.079
 20
-8022.038
 30
-1538.809
 70
    32
  0
VERTEX
  8
T68SSILL
 62
2
 10
2012.452
 20
-8019.908
 30
-1538.889
 70
    32
  0
VERTEX
  8
T68SSILL
 62
2
 10
2017.051
 20
-8024.682
 30
-1538.864
 70
    32
  0
VERTEX
  8
T68SSILL
 62
2
 10
2015.774
 20
-8039.051
 30
-1538.647
 70
    32
  0
VERTEX
  8
T68SSILL
 62
2
 10
2020.201
 20
-8043.728
 30
-1538.621
 70
    32
  0
VERTEX
  8
T68SSILL
 62
2
 10
2012.379
 20
-8072.934
 30
-1538.169
 70
    32
  0
VERTEX
  8
T68SSILL
 62
2
 10
2009.719
 20
-8073.912
 30
-1538.154
 70
    32
  0
VERTEX
  8
T68SSILL
 62
2
 10
2004.589
 20
-8068.598
 30
-1538.120
 70
    32
  0
VERTEX
  8
T68SSILL
 62
2
 10
1996.016
 20
-8052.507
 30
-1538.271
 70
    32
  0
VERTEX
  8
T68SSILL
 62
2
 10
1985.537
 20
-8032.841
 30
-1536.570
 70
    32
  0
VERTEX
  8
T68SSILL
 62
2
 10
1975.878
 20
-8037.301
 30
-1535.541
 70
    32
  0
VERTEX
  8
T68SSILL
 62
2
 10
1987.622
 20
-8061.246
 30
-1537.373
 70
    32
  0
VERTEX
  8
T68SSILL
 62
2
 10
1983.822
 20
-8064.221
 30
-1536.947
 70
    32
  0
VERTEX
  8
T68SSILL
 62
2
 10
1977.726
 20
-8063.653
 30
-1536.164
 70
    32
  0
VERTEX
  8
T68SSILL
 62
2
 10
1977.558
 20
-8073.412
 30
-1536.328
 70
    32
  0
VERTEX
  8
T68SSILL
 62
2
 10
1991.856
 20
-8077.484
 30
-1537.987
 70
    32
  0
VERTEX
  8
T68SSILL
 62
2
 10
2000.574
 20
-8081.613
 30
-1538.134
 70
    32
  0
VERTEX
  8
T68SSILL
 62
2
 10
2001.838
 20
-8088.343
 30
-1538.195
 70
    32
  0
VERTEX
  8
T68SSILL
 62
2
 10
2005.548
 20
-8094.455
 30
-1538.271
 70
    32
  0
VERTEX
  8
T68SSILL
 62
2
 10
2001.901
 20
-8112.061
 30
-1538.371
 70
    32
  0
VERTEX
  8
T68SSILL
 62
2
 10
1994.887
 20
-8124.539
 30
-1537.831
 70
    32
  0
VERTEX
  8
T68SSILL
 62
2
 10
1986.935
 20
-8131.032
 30
-1536.967
 70
    32
  0
VERTEX
  8
T68SSILL
 62
2
 10
1972.643
 20
-8121.848
 30
-1535.617
 70
    32
  0
VERTEX
  8
T68SSILL
 62
2
 10
1942.638
 20
-8111.332
 30
-1532.621
 70
    32
  0
VERTEX
  8
T68SSILL
 62
2
 10
1937.826
 20
-8111.991
 30
-1532.361
 70
    32
  0
VERTEX
  8
T68SSILL
 62
2
 10
1935.327
 20
-8114.937
 30
-1532.379
 70
    32
  0
VERTEX
  8
T68SSILL
 62
2
 10
1920.137
 20
-8122.380
 30
-1532.723
 70
    32
  0
VERTEX
  8
T68SSILL
 62
2
 10
1931.648
 20
-8127.491
 30
-1532.558
 70
    32
  0
VERTEX
  8
T68SSILL
 62
2
 10
1939.112
 20
-8123.748
 30
-1532.366
 70
    32
  0
VERTEX
  8
T68SSILL
 62
2
 10
1946.095
 20
-8122.166
 30
-1532.939
 70
    32
  0
VERTEX
  8
T68SSILL
 62
2
 10
1967.237
 20
-8130.261
 30
-1534.990
 70
    32
  0
VERTEX
  8
T68SSILL
 62
2
 10
1989.761
 20
-8144.735
 30
-1537.117
 70
    32
  0
VERTEX
  8
T68SSILL
 62
2
 10
1991.101
 20
-8152.389
 30
-1537.177
 70
    32
  0
VERTEX
  8
T68SSILL
 62
2
 10
1989.093
 20
-8159.887
 30
-1536.901
 70
    32
  0
VERTEX
  8
T68SSILL
 62
2
 10
1982.385
 20
-8164.299
 30
-1536.182
 70
    32
  0
VERTEX
  8
T68SSILL
 62
2
 10
1971.455
 20
-8176.023
 30
-1534.966
 70
    32
  0
VERTEX
  8
T68SSILL
 62
2
 10
1970.456
 20
-8182.121
 30
-1534.806
 70
    32
  0
VERTEX
  8
T68SSILL
 62
2
 10
1959.531
 20
-8190.007
 30
-1533.628
 70
    32
  0
VERTEX
  8
T68SSILL
 62
2
 10
1933.360
 20
-8208.895
 30
-1533.706
 70
    32
  0
VERTEX
  8
T68SSILL
 62
2
 10
1878.916
 20
-8248.676
 30
-1535.417
 70
    32
  0
VERTEX
  8
T68SSILL
 62
2
 10
1858.930
 20
-8234.481
 30
-1535.626
 70
    32
  0
VERTEX
  8
T68SSILL
 62
2
 10
1851.488
 20
-8244.389
 30
-1535.925
 70
    32
  0
VERTEX
  8
T68SSILL
 62
2
 10
1797.785
 20
-8132.287
 30
-1535.413
 70
    32
  0
VERTEX
  8
T68SSILL
 62
2
 10
1700.898
 20
-7930.035
 30
-1540.566
 70
    32
  0
VERTEX
  8
T68SSILL
 62
2
 10
1680.007
 20
-7886.427
 30
-1540.262
 70
    32
  0
VERTEX
  8
T68SSILL
 62
2
 10
1710.934
 20
-7783.581
 30
-1539.957
 70
    32
  0
VERTEX
  8
T68SSILL
 62
2
 10
1723.553
 20
-7771.995
 30
-1539.917
 70
    32
  0
VERTEX
  8
T68SSILL
 62
2
 10
1724.474
 20
-7759.780
 30
-1539.887
 70
    32
  0
VERTEX
  8
T68SSILL
 62
2
 10
1732.733
 20
-7736.984
 30
-1539.824
 70
    32
  0
VERTEX
  8
T68SSILL
 62
2
 10
1730.390
 20
-7733.031
 30
-1539.817
 70
    32
  0
VERTEX
  8
T68SSILL
 62
2
 10
1737.800
 20
-7711.658
 30
-1539.758
 70
    32
  0
VERTEX
  8
T68SSILL
 62
2
 10
1739.572
 20
-7693.445
 30
-1539.713
 70
    32
  0
VERTEX
  8
T68SSILL
 62
2
 10
1745.201
 20
-7683.483
 30
-1539.684
 70
    32
  0
VERTEX
  8
T68SSILL
 62
2
 10
1747.223
 20
-7681.589
 30
-1539.677
 70
    32
  0
VERTEX
  8
T68SSILL
 62
2
 10
1749.261
 20
-7677.982
 30
-1539.667
 70
    32
  0
VERTEX
  8
T68SSILL
 62
2
 10
1746.621
 20
-7663.167
 30
-1539.634
 70
    32
  0
VERTEX
  8
T68SSILL
 62
2
 10
1764.829
 20
-7617.713
 30
-1539.507
 70
    32
  0
VERTEX
  8
T68SSILL
 62
2
 10
1769.701
 20
-7618.155
 30
-1539.504
 70
    32
  0
VERTEX
  8
T68SSILL
 62
2
 10
1778.997
 20
-7627.849
 30
-1539.517
 70
    32
  0
VERTEX
  8
T68SSILL
 62
2
 10
1784.163
 20
-7623.518
 30
-1539.502
 70
    32
  0
VERTEX
  8
T68SSILL
 62
2
 10
1775.137
 20
-7608.855
 30
-1539.476
 70
    32
  0
VERTEX
  8
T68SSILL
 62
2
 10
1775.310
 20
-7604.058
 30
-1539.464
 70
    32
  0
VERTEX
  8
T68SSILL
 62
2
 10
1791.819
 20
-7581.981
 30
-1539.395
 70
    32
  0
VERTEX
  8
T68SSILL
 62
2
 10
1805.857
 20
-7571.741
 30
-1539.357
 70
    32
  0
VERTEX
  8
T68SSILL
 62
2
 10
1818.396
 20
-7581.144
 30
-1539.372
 70
    32
  0
VERTEX
  8
T68SSILL
 62
2
 10
1827.029
 20
-7575.161
 30
-1539.381
 70
    32
  0
VERTEX
  8
T68SSILL
 62
2
 10
1822.917
 20
-7559.963
 30
-1539.312
 70
    32
  0
VERTEX
  8
T68SSILL
 62
2
 10
1829.585
 20
-7553.244
 30
-1539.289
 70
    32
  0
VERTEX
  8
T68SSILL
 62
2
 10
1836.867
 20
-7539.412
 30
-1539.249
 70
    32
  0
VERTEX
  8
T68SSILL
 62
2
 10
1845.225
 20
-7533.667
 30
-1539.257
 70
    32
  0
VERTEX
  8
T68SSILL
 62
2
 10
2036.975
 20
-7933.927
 30
-1540.346
 70
    32
  0
VERTEX
  8
T68SSILL
 62
2
 10
2036.441
 20
-7939.924
 30
-1540.255
 70
    32
  0
VERTEX
  8
T68SSILL
 62
2
 10
2040.414
 20
-7957.034
 30
-1540.048
 70
    32
  0
SEQEND
  8
T68SSILL
  0
POLYLINE
  8
T68SSILL
 62
2
 66
     1
 70
     9
  0
VERTEX
  8
T68SSILL
 62
2
 10
2029.446
 20
-8037.713
 30
-1538.793
 70
    32
  0
VERTEX
  8
T68SSILL
 62
2
 10
2037.026
 20
-8036.649
 30
-1538.878
 70
    32
  0
VERTEX
  8
T68SSILL
 62
2
 10
2044.380
 20
-8039.355
 30
-1538.908
 70
    32
  0
VERTEX
  8
T68SSILL
 62
2
 10
2049.478
 20
-8030.815
 30
-1539.077
 70
    32
  0
VERTEX
  8
T68SSILL
 62
2
 10
2044.461
 20
-8025.578
 30
-1539.106
 70
    32
  0
VERTEX
  8
T68SSILL
 62
2
 10
2043.992
 20
-8019.512
 30
-1539.188
 70
    32
  0
VERTEX
  8
T68SSILL
 62
2
 10
2038.572
 20
-8016.993
 30
-1539.174
 70
    32
  0
VERTEX
  8
T68SSILL
 62
2
 10
2035.489
 20
-8011.943
 30
-1539.217
 70
    32
  0
VERTEX
  8
T68SSILL
 62
2
 10
2042.480
 20
-7995.001
 30
-1539.524
 70
    32
  0
VERTEX
  8
T68SSILL
 62
2
 10
2050.142
 20
-7995.796
 30
-1539.584
 70
    32
  0
VERTEX
  8
T68SSILL
 62
2
 10
2055.540
 20
-7988.649
 30
-1539.736
 70
    32
  0
VERTEX
  8
T68SSILL
 62
2
 10
2055.662
 20
-7983.461
 30
-1539.812
 70
    32
  0
VERTEX
  8
T68SSILL
 62
2
 10
2051.028
 20
-7981.477
 30
-1539.797
 70
    32
  0
VERTEX
  8
T68SSILL
 62
2
 10
2048.444
 20
-7978.431
 30
-1539.816
 70
    32
  0
VERTEX
  8
T68SSILL
 62
2
 10
2048.215
 20
-7966.246
 30
-1539.989
 70
    32
  0
VERTEX
  8
T68SSILL
 62
2
 10
2049.948
 20
-7960.292
 30
-1540.090
 70
    32
  0
VERTEX
  8
T68SSILL
 62
2
 10
2050.118
 20
-7960.071
 30
-1540.095
 70
    32
  0
VERTEX
  8
T68SSILL
 62
2
 10
2073.904
 20
-8011.490
 30
-1539.580
 70
    32
  0
VERTEX
  8
T68SSILL
 62
2
 10
2090.570
 20
-8042.706
 30
-1539.289
 70
    32
  0
VERTEX
  8
T68SSILL
 62
2
 10
2096.038
 20
-8060.298
 30
-1539.088
 70
    32
  0
VERTEX
  8
T68SSILL
 62
2
 10
2095.975
 20
-8072.680
 30
-1538.911
 70
    32
  0
VERTEX
  8
T68SSILL
 62
2
 10
2092.378
 20
-8088.186
 30
-1538.953
 70
    32
  0
VERTEX
  8
T68SSILL
 62
2
 10
2085.211
 20
-8098.865
 30
-1538.972
 70
    32
  0
VERTEX
  8
T68SSILL
 62
2
 10
2006.995
 20
-8156.192
 30
-1538.741
 70
    32
  0
VERTEX
  8
T68SSILL
 62
2
 10
1994.917
 20
-8164.900
 30
-1537.439
 70
    32
  0
VERTEX
  8
T68SSILL
 62
2
 10
2003.041
 20
-8134.974
 30
-1538.551
 70
    32
  0
SEQEND
  8
T68SSILL
  0
POLYLINE
  8
T68SSILL
 62
3
 66
     1
 70
     8
  0
VERTEX
  8
T68SSILL
 62
3
 10
2258.859
 20
-8973.533
 30
-1544.000
 70
    32
  0
VERTEX
  8
T68SSILL
 62
3
 10
2259.729
 20
-8964.844
 30
-1544.000
 70
    32
  0
VERTEX
  8
T68SSILL
 62
3
 10
2259.883
 20
-8961.844
 30
-1544.000
 70
    32
  0
VERTEX
  8
T68SSILL
 62
3
 10
2259.847
 20
-8961.800
 30
-1544.000
 70
    32
  0
VERTEX
  8
T68SSILL
 62
3
 10
2260.106
 20
-8950.446
 30
-1544.000
 70
    32
  0
SEQEND
  8
T68SSILL
  0
POLYLINE
  8
T68SSILL
 62
3
 66
     1
 70
     8
  0
VERTEX
  8
T68SSILL
 62
3
 10
2273.805
 20
-8969.537
 30
-1544.000
 70
    32
  0
VERTEX
  8
T68SSILL
 62
3
 10
2269.938
 20
-8974.114
 30
-1544.000
 70
    32
  0
VERTEX
  8
T68SSILL
 62
3
 10
2269.183
 20
-8977.608
 30
-1544.000
 70
    32
  0
SEQEND
  8
T68SSILL
  0
POLYLINE
  8
T68SSILL
 62
2
 66
     1
 70
     8
  0
VERTEX
  8
T68SSILL
 62
2
 10
1821.070
 20
-7066.914
 30
-1536.460
 70
    32
  0
VERTEX
  8
T68SSILL
 62
2
 10
1820.349
 20
-7070.813
 30
-1536.489
 70
    32
  0
VERTEX
  8
T68SSILL
 62
2
 10
1770.126
 20
-7106.684
 30
-1537.088
 70
    32
  0
VERTEX
  8
T68SSILL
 62
2
 10
1764.871
 20
-7126.988
 30
-1537.244
 70
    32
  0
VERTEX
  8
T68SSILL
 62
2
 10
1766.280
 20
-7138.691
 30
-1537.291
 70
    32
  0
VERTEX
  8
T68SSILL
 62
2
 10
1776.137
 20
-7142.902
 30
-1537.217
 70
    32
  0
VERTEX
  8
T68SSILL
 62
2
 10
1776.227
 20
-7146.351
 30
-1537.234
 70
    32
  0
VERTEX
  8
T68SSILL
 62
2
 10
1835.822
 20
-7102.804
 30
-1536.625
 70
    32
  0
VERTEX
  8
T68SSILL
 62
2
 10
1836.378
 20
-7091.154
 30
-1536.545
 70
    32
  0
VERTEX
  8
T68SSILL
 62
2
 10
1845.527
 20
-7090.523
 30
-1536.495
 70
    32
  0
VERTEX
  8
T68SSILL
 62
2
 10
1848.458
 20
-7120.141
 30
-1536.677
 70
    32
  0
VERTEX
  8
T68SSILL
 62
2
 10
1838.675
 20
-7121.094
 30
-1536.732
 70
    32
  0
VERTEX
  8
T68SSILL
 62
2
 10
1836.930
 20
-7114.397
 30
-1536.696
 70
    32
  0
VERTEX
  8
T68SSILL
 62
2
 10
1778.040
 20
-7156.938
 30
-1537.272
 70
    32
  0
VERTEX
  8
T68SSILL
 62
2
 10
1778.150
 20
-7159.629
 30
-1537.286
 70
    32
  0
VERTEX
  8
T68SSILL
 62
2
 10
1798.152
 20
-7166.899
 30
-1537.235
 70
    32
  0
VERTEX
  8
T68SSILL
 62
2
 10
1884.563
 20
-7143.264
 30
-1536.610
 70
    32
  0
VERTEX
  8
T68SSILL
 62
2
 10
1886.495
 20
-7153.238
 30
-1536.653
 70
    32
  0
VERTEX
  8
T68SSILL
 62
2
 10
1814.089
 20
-7173.503
 30
-1537.200
 70
    32
  0
VERTEX
  8
T68SSILL
 62
2
 10
1865.995
 20
-7190.236
 30
-1537.044
 70
    32
  0
VERTEX
  8
T68SSILL
 62
2
 10
1871.958
 20
-7183.454
 30
-1536.954
 70
    32
  0
VERTEX
  8
T68SSILL
 62
2
 10
1872.724
 20
-7179.853
 30
-1536.926
 70
    32
  0
VERTEX
  8
T68SSILL
 62
2
 10
1883.236
 20
-7182.984
 30
-1536.857
 70
    32
  0
VERTEX
  8
T68SSILL
 62
2
 10
1870.154
 20
-7220.730
 30
-1537.192
 70
    32
  0
VERTEX
  8
T68SSILL
 62
2
 10
1859.324
 20
-7217.600
 30
-1537.263
 70
    32
  0
VERTEX
  8
T68SSILL
 62
2
 10
1861.508
 20
-7208.683
 30
-1537.192
 70
    32
  0
VERTEX
  8
T68SSILL
 62
2
 10
1860.027
 20
-7200.958
 30
-1537.156
 70
    32
  0
VERTEX
  8
T68SSILL
 62
2
 10
1777.885
 20
-7170.764
 30
-1537.361
 70
    32
  0
VERTEX
  8
T68SSILL
 62
2
 10
1772.481
 20
-7176.638
 30
-1537.427
 70
    32
  0
VERTEX
  8
T68SSILL
 62
2
 10
1774.817
 20
-7194.318
 30
-1537.532
 70
    32
  0
VERTEX
  8
T68SSILL
 62
2
 10
1745.893
 20
-7306.454
 30
-1538.417
 70
    32
  0
VERTEX
  8
T68SSILL
 62
2
 10
2039.188
 20
-7920.661
 30
-1540.556
 70
    32
  0
VERTEX
  8
T68SSILL
 62
2
 10
2100.017
 20
-8048.044
 30
-1539.300
 70
    32
  0
VERTEX
  8
T68SSILL
 62
2
 10
2104.732
 20
-8066.888
 30
-1539.075
 70
    32
  0
VERTEX
  8
T68SSILL
 62
2
 10
2100.235
 20
-8088.638
 30
-1539.023
 70
    32
  0
VERTEX
  8
T68SSILL
 62
2
 10
2159.956
 20
-8045.751
 30
-1539.890
 70
    32
  0
VERTEX
  8
T68SSILL
 62
2
 10
2164.346
 20
-8052.899
 30
-1539.828
 70
    32
  0
VERTEX
  8
T68SSILL
 62
2
 10
2162.421
 20
-8054.622
 30
-1539.786
 70
    32
  0
VERTEX
  8
T68SSILL
 62
2
 10
2169.414
 20
-8063.740
 30
-1539.720
 70
    32
  0
VERTEX
  8
T68SSILL
 62
2
 10
2146.264
 20
-8078.801
 30
-1539.336
 70
    32
  0
VERTEX
  8
T68SSILL
 62
2
 10
2140.840
 20
-8075.328
 30
-1539.289
 70
    32
  0
VERTEX
  8
T68SSILL
 62
2
 10
2127.476
 20
-8079.650
 30
-1539.184
 70
    32
  0
VERTEX
  8
T68SSILL
 62
2
 10
2008.542
 20
-8164.497
 30
-1538.816
 70
    32
  0
VERTEX
  8
T68SSILL
 62
2
 10
1961.764
 20
-8197.868
 30
-1533.776
 70
    32
  0
VERTEX
  8
T68SSILL
 62
2
 10
1892.246
 20
-8247.462
 30
-1535.122
 70
    32
  0
VERTEX
  8
T68SSILL
 62
2
 10
1883.673
 20
-8255.896
 30
-1535.422
 70
    32
  0
VERTEX
  8
T68SSILL
 62
2
 10
1877.732
 20
-8267.131
 30
-1535.709
 70
    32
  0
VERTEX
  8
T68SSILL
 62
2
 10
1875.050
 20
-8284.469
 30
-1536.017
 70
    32
  0
VERTEX
  8
T68SSILL
 62
2
 10
1877.660
 20
-8298.135
 30
-1536.161
 70
    32
  0
VERTEX
  8
T68SSILL
 62
2
 10
1947.391
 20
-8445.165
 30
-1537.685
 70
    32
  0
VERTEX
  8
T68SSILL
 62
2
 10
1954.218
 20
-8440.201
 30
-1537.665
 70
    32
  0
VERTEX
  8
T68SSILL
 62
2
 10
1958.080
 20
-8446.841
 30
-1537.807
 70
    32
  0
VERTEX
  8
T68SSILL
 62
2
 10
1951.323
 20
-8452.512
 30
-1537.840
 70
    32
  0
VERTEX
  8
T68SSILL
 62
2
 10
2027.414
 20
-8613.765
 30
-1541.142
 70
    32
  0
VERTEX
  8
T68SSILL
 62
2
 10
2037.682
 20
-8627.286
 30
-1541.453
 70
    32
  0
VERTEX
  8
T68SSILL
 62
2
 10
2046.627
 20
-8621.354
 30
-1541.435
 70
    32
  0
VERTEX
  8
T68SSILL
 62
2
 10
2050.634
 20
-8626.381
 30
-1541.552
 70
    32
  0
VERTEX
  8
T68SSILL
 62
2
 10
2042.118
 20
-8632.763
 30
-1541.582
 70
    32
  0
VERTEX
  8
T68SSILL
 62
2
 10
2102.132
 20
-8717.724
 30
-1543.497
 70
    32
  0
VERTEX
  8
T68SSILL
 62
2
 10
2110.839
 20
-8718.435
 30
-1543.695
 70
    32
  0
VERTEX
  8
T68SSILL
 62
2
 10
2124.641
 20
-8738.291
 30
-1544.016
 70
    32
  0
VERTEX
  8
T68SSILL
 62
2
 10
2140.735
 20
-8670.512
 30
-1543.675
 70
    32
  0
VERTEX
  8
T68SSILL
 62
2
 10
2122.361
 20
-8619.054
 30
-1543.139
 70
    32
  0
VERTEX
  8
T68SSILL
 62
2
 10
2128.620
 20
-8617.083
 30
-1543.177
 70
    32
  0
VERTEX
  8
T68SSILL
 62
2
 10
2148.407
 20
-8672.499
 30
-1543.754
 70
    32
  0
VERTEX
  8
T68SSILL
 62
2
 10
2131.192
 20
-8744.313
 30
-1544.039
 70
    32
  0
VERTEX
  8
T68SSILL
 62
2
 10
2133.615
 20
-8760.611
 30
-1544.041
 70
    32
  0
VERTEX
  8
T68SSILL
 62
2
 10
2183.425
 20
-8830.169
 30
-1544.208
 70
    32
  0
VERTEX
  8
T68SSILL
 62
2
 10
2191.265
 20
-8824.807
 30
-1544.241
 70
    32
  0
VERTEX
  8
T68SSILL
 62
2
 10
2195.556
 20
-8831.142
 30
-1544.255
 70
    32
  0
VERTEX
  8
T68SSILL
 62
2
 10
2188.043
 20
-8836.811
 30
-1544.223
 70
    32
  0
VERTEX
  8
T68SSILL
 62
2
 10
2299.602
 20
-8993.010
 30
-1544.595
 70
    32
  0
VERTEX
  8
T68SSILL
 62
2
 10
2308.302
 20
-8987.036
 30
-1544.632
 70
    32
  0
VERTEX
  8
T68SSILL
 62
2
 10
2311.981
 20
-8992.512
 30
-1544.644
 70
    32
  0
VERTEX
  8
T68SSILL
 62
2
 10
2303.282
 20
-8998.485
 30
-1544.607
 70
    32
  0
VERTEX
  8
T68SSILL
 62
2
 10
2588.092
 20
-9398.287
 30
-1545.556
 70
    32
  0
VERTEX
  8
T68SSILL
 62
2
 10
2596.505
 20
-9398.617
 30
-1545.589
 70
    32
  0
VERTEX
  8
T68SSILL
 62
2
 10
2610.801
 20
-9418.973
 30
-1545.661
 70
    32
  0
VERTEX
  8
T68SSILL
 62
2
 10
2606.162
 20
-9423.091
 30
-1545.641
 70
    32
  0
VERTEX
  8
T68SSILL
 62
2
 10
2647.677
 20
-9481.052
 30
-1545.881
 70
    32
  0
VERTEX
  8
T68SSILL
 62
2
 10
2655.613
 20
-9475.219
 30
-1545.916
 70
    32
  0
VERTEX
  8
T68SSILL
 62
2
 10
2659.354
 20
-9481.178
 30
-1545.938
 70
    32
  0
VERTEX
  8
T68SSILL
 62
2
 10
2651.438
 20
-9486.572
 30
-1545.903
 70
    32
  0
VERTEX
  8
T68SSILL
 62
2
 10
2763.527
 20
-9643.740
 30
-1546.551
 70
    32
  0
VERTEX
  8
T68SSILL
 62
2
 10
2770.572
 20
-9638.939
 30
-1546.582
 70
    32
  0
VERTEX
  8
T68SSILL
 62
2
 10
2774.603
 20
-9644.700
 30
-1546.606
 70
    32
  0
VERTEX
  8
T68SSILL
 62
2
 10
2768.096
 20
-9649.666
 30
-1546.577
 70
    32
  0
VERTEX
  8
T68SSILL
 62
2
 10
2997.408
 20
-9970.287
 30
-1547.985
 70
    32
  0
VERTEX
  8
T68SSILL
 62
2
 10
3005.443
 20
-9964.599
 30
-1547.996
 70
    32
  0
VERTEX
  8
T68SSILL
 62
2
 10
3009.812
 20
-9969.918
 30
-1548.028
 70
    32
  0
VERTEX
  8
T68SSILL
 62
2
 10
3001.393
 20
-9976.292
 30
-1548.018
 70
    32
  0
VERTEX
  8
T68SSILL
 62
2
 10
3022.337
 20
-10005.624
 30
-1548.182
 70
    32
  0
VERTEX
  8
T68SSILL
 62
2
 10
3032.171
 20
-10013.813
 30
-1548.242
 70
    32
  0
VERTEX
  8
T68SSILL
 62
2
 10
3052.568
 20
-10025.332
 30
-1548.349
 70
    32
  0
VERTEX
  8
T68SSILL
 62
2
 10
3068.420
 20
-10030.802
 30
-1548.421
 70
    32
  0
VERTEX
  8
T68SSILL
 62
2
 10
3091.431
 20
-10033.202
 30
-1548.509
 70
    32
  0
VERTEX
  8
T68SSILL
 62
2
 10
3115.246
 20
-10030.694
 30
-1548.585
 70
    32
  0
VERTEX
  8
T68SSILL
 62
2
 10
3303.027
 20
-9973.679
 30
-1549.066
 70
    32
  0
VERTEX
  8
T68SSILL
 62
2
 10
3304.830
 20
-9971.175
 30
-1549.064
 70
    32
  0
VERTEX
  8
T68SSILL
 62
2
 10
3485.365
 20
-9916.012
 30
-1549.663
 70
    32
  0
VERTEX
  8
T68SSILL
 62
2
 10
3486.768
 20
-9917.290
 30
-1549.670
 70
    32
  0
VERTEX
  8
T68SSILL
 62
2
 10
3820.057
 20
-9812.512
 30
-1550.807
 70
    32
  0
VERTEX
  8
T68SSILL
 62
2
 10
3817.836
 20
-9804.128
 30
-1550.789
 70
    32
  0
VERTEX
  8
T68SSILL
 62
2
 10
3842.991
 20
-9796.040
 30
-1550.874
 70
    32
  0
VERTEX
  8
T68SSILL
 62
2
 10
3855.009
 20
-9802.009
 30
-1550.927
 70
    32
  0
VERTEX
  8
T68SSILL
 62
2
 10
4552.507
 20
-9586.505
 30
-1553.286
 70
    32
  0
VERTEX
  8
T68SSILL
 62
2
 10
4571.196
 20
-9582.120
 30
-1553.351
 70
    32
  0
VERTEX
  8
T68SSILL
 62
2
 10
4593.727
 20
-9579.635
 30
-1553.434
 70
    32
  0
VERTEX
  8
T68SSILL
 62
2
 10
4627.018
 20
-9583.291
 30
-1553.676
 70
    32
  0
VERTEX
  8
T68SSILL
 62
2
 10
4634.907
 20
-9586.622
 30
-1553.744
 70
    32
  0
VERTEX
  8
T68SSILL
 62
2
 10
4643.040
 20
-9580.920
 30
-1553.780
 70
    32
  0
VERTEX
  8
T68SSILL
 62
2
 10
4632.463
 20
-9566.870
 30
-1553.741
 70
    32
  0
VERTEX
  8
T68SSILL
 62
2
 10
4638.574
 20
-9561.965
 30
-1553.764
 70
    32
  0
VERTEX
  8
T68SSILL
 62
2
 10
4598.047
 20
-9485.558
 30
-1553.613
 70
    32
  0
VERTEX
  8
T68SSILL
 62
2
 10
4584.533
 20
-9466.647
 30
-1553.563
 70
    32
  0
VERTEX
  8
T68SSILL
 62
2
 10
4567.120
 20
-9452.893
 30
-1553.498
 70
    32
  0
VERTEX
  8
T68SSILL
 62
2
 10
4539.538
 20
-9436.669
 30
-1553.395
 70
    32
  0
VERTEX
  8
T68SSILL
 62
2
 10
4533.988
 20
-9435.698
 30
-1553.374
 70
    32
  0
VERTEX
  8
T68SSILL
 62
2
 10
4511.225
 20
-9448.018
 30
-1553.269
 70
    32
  0
VERTEX
  8
T68SSILL
 62
2
 10
4504.115
 20
-9439.199
 30
-1553.248
 70
    32
  0
VERTEX
  8
T68SSILL
 62
2
 10
4518.660
 20
-9424.340
 30
-1553.317
 70
    32
  0
VERTEX
  8
T68SSILL
 62
2
 10
4444.804
 20
-9383.371
 30
-1552.948
 70
    32
  0
VERTEX
  8
T68SSILL
 62
2
 10
4426.362
 20
-9378.927
 30
-1552.768
 70
    32
  0
VERTEX
  8
T68SSILL
 62
2
 10
4412.072
 20
-9391.063
 30
-1552.522
 70
    32
  0
VERTEX
  8
T68SSILL
 62
2
 10
4406.563
 20
-9382.102
 30
-1552.520
 70
    32
  0
VERTEX
  8
T68SSILL
 62
2
 10
4411.540
 20
-9374.654
 30
-1552.627
 70
    32
  0
VERTEX
  8
T68SSILL
 62
2
 10
4399.159
 20
-9365.734
 30
-1552.546
 70
    32
  0
VERTEX
  8
T68SSILL
 62
2
 10
4377.267
 20
-9355.481
 30
-1552.365
 70
    32
  0
VERTEX
  8
T68SSILL
 62
2
 10
4380.454
 20
-9348.055
 30
-1552.452
 70
    32
  0
VERTEX
  8
T68SSILL
 62
2
 10
4335.099
 20
-9322.736
 30
-1552.105
 70
    32
  0
VERTEX
  8
T68SSILL
 62
2
 10
4323.093
 20
-9333.548
 30
-1552.062
 70
    32
  0
VERTEX
  8
T68SSILL
 62
2
 10
4314.673
 20
-9324.768
 30
-1552.018
 70
    32
  0
VERTEX
  8
T68SSILL
 62
2
 10
4321.599
 20
-9315.200
 30
-1552.031
 70
    32
  0
VERTEX
  8
T68SSILL
 62
2
 10
4238.259
 20
-9268.676
 30
-1551.894
 70
    32
  0
VERTEX
  8
T68SSILL
 62
2
 10
4224.655
 20
-9276.075
 30
-1551.847
 70
    32
  0
VERTEX
  8
T68SSILL
 62
2
 10
4217.337
 20
-9268.092
 30
-1551.846
 70
    32
  0
VERTEX
  8
T68SSILL
 62
2
 10
4222.139
 20
-9259.677
 30
-1551.874
 70
    32
  0
VERTEX
  8
T68SSILL
 62
2
 10
4142.660
 20
-9215.308
 30
-1551.706
 70
    32
  0
VERTEX
  8
T68SSILL
 62
2
 10
4126.648
 20
-9221.689
 30
-1551.653
 70
    32
  0
VERTEX
  8
T68SSILL
 62
2
 10
4120.613
 20
-9213.691
 30
-1551.639
 70
    32
  0
VERTEX
  8
T68SSILL
 62
2
 10
4125.396
 20
-9205.671
 30
-1551.659
 70
    32
  0
VERTEX
  8
T68SSILL
 62
2
 10
4105.518
 20
-9194.574
 30
-1551.604
 70
    32
  0
VERTEX
  8
T68SSILL
 62
2
 10
4080.785
 20
-9188.179
 30
-1551.531
 70
    32
  0
VERTEX
  8
T68SSILL
 62
2
 10
4058.713
 20
-9177.489
 30
-1551.476
 70
    32
  0
VERTEX
  8
T68SSILL
 62
2
 10
4041.402
 20
-9164.856
 30
-1551.437
 70
    32
  0
VERTEX
  8
T68SSILL
 62
2
 10
4039.228
 20
-9165.448
 30
-1551.430
 70
    32
  0
VERTEX
  8
T68SSILL
 62
2
 10
4034.438
 20
-9174.130
 30
-1551.409
 70
    32
  0
VERTEX
  8
T68SSILL
 62
2
 10
4023.082
 20
-9162.626
 30
-1551.386
 70
    32
  0
VERTEX
  8
T68SSILL
 62
2
 10
4026.291
 20
-9156.573
 30
-1551.401
 70
    32
  0
VERTEX
  8
T68SSILL
 62
2
 10
4024.690
 20
-9149.486
 30
-1551.402
 70
    32
  0
VERTEX
  8
T68SSILL
 62
2
 10
3994.190
 20
-9132.493
 30
-1551.329
 70
    32
  0
VERTEX
  8
T68SSILL
 62
2
 10
3961.630
 20
-9104.863
 30
-1551.193
 70
    32
  0
VERTEX
  8
T68SSILL
 62
2
 10
3957.367
 20
-9104.470
 30
-1551.176
 70
    32
  0
VERTEX
  8
T68SSILL
 62
2
 10
3950.890
 20
-9108.338
 30
-1551.153
 70
    32
  0
VERTEX
  8
T68SSILL
 62
2
 10
3944.746
 20
-9115.237
 30
-1551.132
 70
    32
  0
VERTEX
  8
T68SSILL
 62
2
 10
3930.620
 20
-9102.442
 30
-1551.072
 70
    32
  0
VERTEX
  8
T68SSILL
 62
2
 10
3941.743
 20
-9092.065
 30
-1551.110
 70
    32
  0
VERTEX
  8
T68SSILL
 62
2
 10
3939.038
 20
-9085.692
 30
-1551.097
 70
    32
  0
VERTEX
  8
T68SSILL
 62
2
 10
3883.524
 20
-9038.581
 30
-1550.870
 70
    32
  0
VERTEX
  8
T68SSILL
 62
2
 10
3866.787
 20
-9048.031
 30
-1550.813
 70
    32
  0
VERTEX
  8
T68SSILL
 62
2
 10
3860.364
 20
-9032.689
 30
-1550.794
 70
    32
  0
VERTEX
  8
T68SSILL
 62
2
 10
3868.283
 20
-9025.648
 30
-1550.822
 70
    32
  0
VERTEX
  8
T68SSILL
 62
2
 10
3805.559
 20
-8972.420
 30
-1550.623
 70
    32
  0
VERTEX
  8
T68SSILL
 62
2
 10
3792.145
 20
-8979.071
 30
-1550.577
 70
    32
  0
VERTEX
  8
T68SSILL
 62
2
 10
3781.936
 20
-8970.537
 30
-1550.545
 70
    32
  0
VERTEX
  8
T68SSILL
 62
2
 10
3787.859
 20
-8960.295
 30
-1550.566
 70
    32
  0
VERTEX
  8
T68SSILL
 62
2
 10
3787.610
 20
-8957.189
 30
-1550.566
 70
    32
  0
VERTEX
  8
T68SSILL
 62
2
 10
3727.540
 20
-8905.765
 30
-1550.375
 70
    32
  0
VERTEX
  8
T68SSILL
 62
2
 10
3713.984
 20
-8914.598
 30
-1550.329
 70
    32
  0
VERTEX
  8
T68SSILL
 62
2
 10
3704.239
 20
-8901.612
 30
-1550.299
 70
    32
  0
VERTEX
  8
T68SSILL
 62
2
 10
3709.323
 20
-8890.274
 30
-1550.317
 70
    32
  0
VERTEX
  8
T68SSILL
 62
2
 10
3661.742
 20
-8850.318
 30
-1550.166
 70
    32
  0
VERTEX
  8
T68SSILL
 62
2
 10
3644.412
 20
-8840.562
 30
-1550.111
 70
    32
  0
VERTEX
  8
T68SSILL
 62
2
 10
3632.440
 20
-8846.526
 30
-1550.070
 70
    32
  0
VERTEX
  8
T68SSILL
 62
2
 10
3622.404
 20
-8836.501
 30
-1550.038
 70
    32
  0
VERTEX
  8
T68SSILL
 62
2
 10
3625.638
 20
-8833.029
 30
-1550.050
 70
    32
  0
VERTEX
  8
T68SSILL
 62
2
 10
3583.201
 20
-8832.240
 30
-1549.909
 70
    32
  0
VERTEX
  8
T68SSILL
 62
2
 10
3566.216
 20
-8837.843
 30
-1549.852
 70
    32
  0
VERTEX
  8
T68SSILL
 62
2
 10
3420.872
 20
-8939.533
 30
-1549.307
 70
    32
  0
VERTEX
  8
T68SSILL
 62
2
 10
3415.486
 20
-8931.835
 30
-1549.276
 70
    32
  0
VERTEX
  8
T68SSILL
 62
2
 10
3462.135
 20
-8899.155
 30
-1549.482
 70
    32
  0
VERTEX
  8
T68SSILL
 62
2
 10
3471.343
 20
-8886.161
 30
-1549.519
 70
    32
  0
VERTEX
  8
T68SSILL
 62
2
 10
3506.605
 20
-8858.908
 30
-1549.650
 70
    32
  0
VERTEX
  8
T68SSILL
 62
2
 10
3514.820
 20
-8856.763
 30
-1549.678
 70
    32
  0
VERTEX
  8
T68SSILL
 62
2
 10
3537.617
 20
-8846.868
 30
-1549.755
 70
    32
  0
VERTEX
  8
T68SSILL
 62
2
 10
3564.965
 20
-8827.734
 30
-1549.849
 70
    32
  0
VERTEX
  8
T68SSILL
 62
2
 10
3582.197
 20
-8820.292
 30
-1549.908
 70
    32
  0
VERTEX
  8
T68SSILL
 62
2
 10
3610.367
 20
-8818.858
 30
-1550.001
 70
    32
  0
VERTEX
  8
T68SSILL
 62
2
 10
3611.809
 20
-8807.354
 30
-1550.008
 70
    32
  0
VERTEX
  8
T68SSILL
 62
2
 10
3434.352
 20
-8656.448
 30
-1549.176
 70
    32
  0
VERTEX
  8
T68SSILL
 62
2
 10
3324.303
 20
-8503.108
 30
-1548.622
 70
    32
  0
VERTEX
  8
T68SSILL
 62
2
 10
3315.496
 20
-8502.813
 30
-1548.602
 70
    32
  0
VERTEX
  8
T68SSILL
 62
2
 10
3301.473
 20
-8506.438
 30
-1548.563
 70
    32
  0
VERTEX
  8
T68SSILL
 62
2
 10
3279.002
 20
-8509.444
 30
-1548.505
 70
    32
  0
VERTEX
  8
T68SSILL
 62
2
 10
3276.752
 20
-8500.131
 30
-1548.513
 70
    32
  0
VERTEX
  8
T68SSILL
 62
2
 10
3298.478
 20
-8494.296
 30
-1548.573
 70
    32
  0
VERTEX
  8
T68SSILL
 62
2
 10
3303.315
 20
-8489.801
 30
-1548.591
 70
    32
  0
VERTEX
  8
T68SSILL
 62
2
 10
3299.396
 20
-8481.272
 30
-1548.594
 70
    32
  0
VERTEX
  8
T68SSILL
 62
2
 10
3266.926
 20
-8443.924
 30
-1548.570
 70
    32
  0
VERTEX
  8
T68SSILL
 62
2
 10
3272.753
 20
-8432.657
 30
-1548.601
 70
    32
  0
VERTEX
  8
T68SSILL
 62
2
 10
2967.414
 20
-8005.835
 30
-1546.112
 70
    32
  0
VERTEX
  8
T68SSILL
 62
2
 10
2974.638
 20
-8000.465
 30
-1546.092
 70
    32
  0
VERTEX
  8
T68SSILL
 62
2
 10
3298.587
 20
-8452.240
 30
-1548.280
 70
    32
  0
VERTEX
  8
T68SSILL
 62
2
 10
3301.023
 20
-8454.740
 30
-1544.280
 70
    32
  0
VERTEX
  8
T68SSILL
 62
2
 10
3307.026
 20
-8456.518
 30
-1544.280
 70
    32
  0
VERTEX
  8
T68SSILL
 62
2
 10
3315.083
 20
-8456.380
 30
-1544.280
 70
    32
  0
VERTEX
  8
T68SSILL
 62
2
 10
3319.747
 20
-8465.791
 30
-1544.280
 70
    32
  0
VERTEX
  8
T68SSILL
 62
2
 10
3327.377
 20
-8476.858
 30
-1544.280
 70
    32
  0
VERTEX
  8
T68SSILL
 62
2
 10
3319.953
 20
-8481.252
 30
-1544.280
 70
    32
  0
VERTEX
  8
T68SSILL
 62
2
 10
3320.218
 20
-8482.389
 30
-1548.330
 70
    32
  0
VERTEX
  8
T68SSILL
 62
2
 10
3440.512
 20
-8649.879
 30
-1549.202
 70
    32
  0
VERTEX
  8
T68SSILL
 62
2
 10
3642.080
 20
-8821.281
 30
-1550.066
 70
    32
  0
VERTEX
  8
T68SSILL
 62
2
 10
3647.617
 20
-8822.611
 30
-1543.000
 70
    32
  0
VERTEX
  8
T68SSILL
 62
2
 10
3658.216
 20
-8816.801
 30
-1543.000
 70
    32
  0
VERTEX
  8
T68SSILL
 62
2
 10
3669.683
 20
-8810.501
 30
-1543.000
 70
    32
  0
VERTEX
  8
T68SSILL
 62
2
 10
3675.729
 20
-8820.263
 30
-1543.000
 70
    32
  0
VERTEX
  8
T68SSILL
 62
2
 10
3658.465
 20
-8835.214
 30
-1543.000
 70
    32
  0
VERTEX
  8
T68SSILL
 62
2
 10
3658.745
 20
-8835.451
 30
-1550.120
 70
    32
  0
VERTEX
  8
T68SSILL
 62
2
 10
3722.475
 20
-8890.111
 30
-1550.326
 70
    32
  0
VERTEX
  8
T68SSILL
 62
2
 10
3735.409
 20
-8881.887
 30
-1550.242
 70
    32
  0
VERTEX
  8
T68SSILL
 62
2
 10
3745.737
 20
-8896.277
 30
-1550.312
 70
    32
  0
VERTEX
  8
T68SSILL
 62
2
 10
3738.784
 20
-8903.951
 30
-1550.378
 70
    32
  0
VERTEX
  8
T68SSILL
 62
2
 10
3799.296
 20
-8955.301
 30
-1550.570
 70
    32
  0
VERTEX
  8
T68SSILL
 62
2
 10
3815.799
 20
-8946.940
 30
-1550.477
 70
    32
  0
VERTEX
  8
T68SSILL
 62
2
 10
3821.630
 20
-8957.910
 30
-1550.535
 70
    32
  0
VERTEX
  8
T68SSILL
 62
2
 10
3816.059
 20
-8964.376
 30
-1550.590
 70
    32
  0
VERTEX
  8
T68SSILL
 62
2
 10
3815.114
 20
-8968.725
 30
-1550.620
 70
    32
  0
VERTEX
  8
T68SSILL
 62
2
 10
3876.657
 20
-9020.950
 30
-1550.816
 70
    32
  0
VERTEX
  8
T68SSILL
 62
2
 10
3881.697
 20
-9020.630
 30
-1550.802
 70
    32
  0
VERTEX
  8
T68SSILL
 62
2
 10
3893.444
 20
-9015.383
 30
-1550.740
 70
    32
  0
VERTEX
  8
T68SSILL
 62
2
 10
3902.743
 20
-9025.860
 30
-1550.787
 70
    32
  0
VERTEX
  8
T68SSILL
 62
2
 10
3893.566
 20
-9035.300
 30
-1550.869
 70
    32
  0
VERTEX
  8
T68SSILL
 62
2
 10
3955.635
 20
-9087.971
 30
-1551.130
 70
    32
  0
VERTEX
  8
T68SSILL
 62
2
 10
3960.653
 20
-9086.529
 30
-1551.133
 70
    32
  0
VERTEX
  8
T68SSILL
 62
2
 10
3966.995
 20
-9081.641
 30
-1551.173
 70
    32
  0
VERTEX
  8
T68SSILL
 62
2
 10
3978.996
 20
-9093.690
 30
-1551.207
 70
    32
  0
VERTEX
  8
T68SSILL
 62
2
 10
3973.031
 20
-9101.090
 30
-1551.192
 70
    32
  0
VERTEX
  8
T68SSILL
 62
2
 10
3975.480
 20
-9104.812
 30
-1551.213
 70
    32
  0
VERTEX
  8
T68SSILL
 62
2
 10
3998.771
 20
-9124.577
 30
-1551.311
 70
    32
  0
VERTEX
  8
T68SSILL
 62
2
 10
4040.030
 20
-9147.803
 30
-1551.411
 70
    32
  0
VERTEX
  8
T68SSILL
 62
2
 10
4044.784
 20
-9146.583
 30
-1551.417
 70
    32
  0
VERTEX
  8
T68SSILL
 62
2
 10
4054.853
 20
-9137.753
 30
-1551.483
 70
    32
  0
VERTEX
  8
T68SSILL
 62
2
 10
4066.153
 20
-9148.675
 30
-1551.515
 70
    32
  0
VERTEX
  8
T68SSILL
 62
2
 10
4062.022
 20
-9153.093
 30
-1551.487
 70
    32
  0
VERTEX
  8
T68SSILL
 62
2
 10
4067.023
 20
-9162.769
 30
-1551.491
 70
    32
  0
VERTEX
  8
T68SSILL
 62
2
 10
4139.955
 20
-9203.205
 30
-1551.718
 70
    32
  0
VERTEX
  8
T68SSILL
 62
2
 10
4151.625
 20
-9196.027
 30
-1551.790
 70
    32
  0
VERTEX
  8
T68SSILL
 62
2
 10
4159.103
 20
-9206.858
 30
-1551.791
 70
    32
  0
VERTEX
  8
T68SSILL
 62
2
 10
4154.290
 20
-9208.378
 30
-1551.765
 70
    32
  0
VERTEX
  8
T68SSILL
 62
2
 10
4154.652
 20
-9211.592
 30
-1551.757
 70
    32
  0
VERTEX
  8
T68SSILL
 62
2
 10
4586.442
 20
-9452.905
 30
-1553.583
 70
    32
  0
VERTEX
  8
T68SSILL
 62
2
 10
4602.374
 20
-9472.876
 30
-1553.648
 70
    32
  0
VERTEX
  8
T68SSILL
 62
2
 10
4648.768
 20
-9561.978
 30
-1553.806
 70
    32
  0
VERTEX
  8
T68SSILL
 62
2
 10
4652.144
 20
-9566.747
 30
-1553.819
 70
    32
  0
VERTEX
  8
T68SSILL
 62
2
 10
4658.725
 20
-9570.363
 30
-1553.850
 70
    32
  0
VERTEX
  8
T68SSILL
 62
2
 10
4662.669
 20
-9576.944
 30
-1553.865
 70
    32
  0
VERTEX
  8
T68SSILL
 62
2
 10
4659.318
 20
-9578.906
 30
-1553.845
 70
    32
  0
VERTEX
  8
T68SSILL
 62
2
 10
4669.752
 20
-9602.131
 30
-1553.880
 70
    32
  0
VERTEX
  8
T68SSILL
 62
2
 10
4720.480
 20
-9673.595
 30
-1554.076
 70
    32
  0
VERTEX
  8
T68SSILL
 62
2
 10
4727.898
 20
-9674.453
 30
-1554.115
 70
    32
  0
VERTEX
  8
T68SSILL
 62
2
 10
4733.876
 20
-9667.698
 30
-1554.154
 70
    32
  0
VERTEX
  8
T68SSILL
 62
2
 10
4732.506
 20
-9659.278
 30
-1554.155
 70
    32
  0
VERTEX
  8
T68SSILL
 62
2
 10
4733.650
 20
-9653.168
 30
-1554.168
 70
    32
  0
VERTEX
  8
T68SSILL
 62
2
 10
4741.374
 20
-9640.088
 30
-1554.223
 70
    32
  0
VERTEX
  8
T68SSILL
 62
2
 10
4746.749
 20
-9634.304
 30
-1554.258
 70
    32
  0
VERTEX
  8
T68SSILL
 62
2
 10
4753.830
 20
-9634.539
 30
-1554.296
 70
    32
  0
VERTEX
  8
T68SSILL
 62
2
 10
4757.056
 20
-9629.144
 30
-1554.319
 70
    32
  0
VERTEX
  8
T68SSILL
 62
2
 10
4769.516
 20
-9637.373
 30
-1554.377
 70
    32
  0
VERTEX
  8
T68SSILL
 62
2
 10
4764.324
 20
-9639.248
 30
-1554.347
 70
    32
  0
VERTEX
  8
T68SSILL
 62
2
 10
4754.782
 20
-9657.192
 30
-1554.278
 70
    32
  0
VERTEX
  8
T68SSILL
 62
2
 10
4759.738
 20
-9666.399
 30
-1554.275
 70
    32
  0
VERTEX
  8
T68SSILL
 62
2
 10
4757.317
 20
-9674.502
 30
-1554.246
 70
    32
  0
VERTEX
  8
T68SSILL
 62
2
 10
4747.824
 20
-9673.614
 30
-1554.212
 70
    32
  0
VERTEX
  8
T68SSILL
 62
2
 10
4742.807
 20
-9678.386
 30
-1554.181
 70
    32
  0
VERTEX
  8
T68SSILL
 62
2
 10
4742.103
 20
-9702.654
 30
-1554.165
 70
    32
  0
VERTEX
  8
T68SSILL
 62
2
 10
4808.416
 20
-9795.933
 30
-1554.526
 70
    32
  0
VERTEX
  8
T68SSILL
 62
2
 10
4826.995
 20
-9791.960
 30
-1554.589
 70
    32
  0
VERTEX
  8
T68SSILL
 62
2
 10
4827.895
 20
-9795.151
 30
-1554.597
 70
    32
  0
VERTEX
  8
T68SSILL
 62
2
 10
4821.730
 20
-9803.381
 30
-1554.584
 70
    32
  0
VERTEX
  8
T68SSILL
 62
2
 10
4823.141
 20
-9806.262
 30
-1554.593
 70
    32
  0
VERTEX
  8
T68SSILL
 62
2
 10
4820.995
 20
-9813.088
 30
-1554.594
 70
    32
  0
VERTEX
  8
T68SSILL
 62
2
 10
4925.680
 20
-9960.082
 30
-1555.163
 70
    32
  0
VERTEX
  8
T68SSILL
 62
2
 10
4935.336
 20
-9953.940
 30
-1555.191
 70
    32
  0
VERTEX
  8
T68SSILL
 62
2
 10
4939.577
 20
-9959.877
 30
-1555.214
 70
    32
  0
VERTEX
  8
T68SSILL
 62
2
 10
4930.493
 20
-9966.366
 30
-1555.189
 70
    32
  0
VERTEX
  8
T68SSILL
 62
2
 10
4981.916
 20
-10037.441
 30
-1555.467
 70
    32
  0
VERTEX
  8
T68SSILL
 62
2
 10
4988.690
 20
-10032.709
 30
-1555.486
 70
    32
  0
VERTEX
  8
T68SSILL
 62
2
 10
4992.492
 20
-10038.636
 30
-1555.507
 70
    32
  0
VERTEX
  8
T68SSILL
 62
2
 10
4986.024
 20
-10043.040
 30
-1555.489
 70
    32
  0
VERTEX
  8
T68SSILL
 62
2
 10
5036.578
 20
-10112.899
 30
-1555.762
 70
    32
  0
VERTEX
  8
T68SSILL
 62
2
 10
5045.815
 20
-10106.625
 30
-1555.789
 70
    32
  0
VERTEX
  8
T68SSILL
 62
2
 10
5049.780
 20
-10112.326
 30
-1555.810
 70
    32
  0
VERTEX
  8
T68SSILL
 62
2
 10
5040.317
 20
-10119.623
 30
-1555.785
 70
    32
  0
VERTEX
  8
T68SSILL
 62
2
 10
5092.996
 20
-10192.772
 30
-1556.070
 70
    32
  0
VERTEX
  8
T68SSILL
 62
2
 10
5100.564
 20
-10187.323
 30
-1556.091
 70
    32
  0
VERTEX
  8
T68SSILL
 62
2
 10
5104.861
 20
-10193.443
 30
-1556.115
 70
    32
  0
VERTEX
  8
T68SSILL
 62
2
 10
5097.551
 20
-10199.248
 30
-1556.095
 70
    32
  0
VERTEX
  8
T68SSILL
 62
2
 10
5148.705
 20
-10269.843
 30
-1556.055
 70
    32
  0
VERTEX
  8
T68SSILL
 62
2
 10
5157.651
 20
-10264.052
 30
-1556.115
 70
    32
  0
VERTEX
  8
T68SSILL
 62
2
 10
5161.521
 20
-10270.480
 30
-1556.095
 70
    32
  0
VERTEX
  8
T68SSILL
 62
2
 10
5156.175
 20
-10273.896
 30
-1556.058
 70
    32
  0
VERTEX
  8
T68SSILL
 62
2
 10
5169.774
 20
-10275.920
 30
-1556.086
 70
    32
  0
VERTEX
  8
T68SSILL
 62
2
 10
5171.787
 20
-10270.135
 30
-1556.112
 70
    32
  0
VERTEX
  8
T68SSILL
 62
2
 10
5181.302
 20
-10271.305
 30
-1556.122
 70
    32
  0
VERTEX
  8
T68SSILL
 62
2
 10
5180.782
 20
-10277.208
 30
-1556.098
 70
    32
  0
VERTEX
  8
T68SSILL
 62
2
 10
5336.487
 20
-10303.312
 30
-1556.205
 70
    32
  0
VERTEX
  8
T68SSILL
 62
2
 10
5351.888
 20
-10300.462
 30
-1556.234
 70
    32
  0
VERTEX
  8
T68SSILL
 62
2
 10
6455.338
 20
-9510.268
 30
-1560.250
 70
    32
  0
VERTEX
  8
T68SSILL
 62
2
 10
6471.917
 20
-9496.787
 30
-1560.246
 70
    32
  0
VERTEX
  8
T68SSILL
 62
2
 10
6484.633
 20
-9481.086
 30
-1560.255
 70
    32
  0
VERTEX
  8
T68SSILL
 62
2
 10
6490.968
 20
-9468.430
 30
-1560.270
 70
    32
  0
VERTEX
  8
T68SSILL
 62
2
 10
6497.372
 20
-9449.658
 30
-1560.299
 70
    32
  0
VERTEX
  8
T68SSILL
 62
2
 10
6499.096
 20
-9435.857
 30
-1560.326
 70
    32
  0
VERTEX
  8
T68SSILL
 62
2
 10
6498.482
 20
-9417.120
 30
-1560.368
 70
    32
  0
VERTEX
  8
T68SSILL
 62
2
 10
6496.437
 20
-9404.714
 30
-1560.400
 70
    32
  0
VERTEX
  8
T68SSILL
 62
2
 10
6486.969
 20
-9381.474
 30
-1560.471
 70
    32
  0
VERTEX
  8
T68SSILL
 62
2
 10
6027.444
 20
-8684.619
 30
-1561.539
 70
    32
  0
VERTEX
  8
T68SSILL
 62
2
 10
6016.127
 20
-8677.599
 30
-1561.513
 70
    32
  0
VERTEX
  8
T68SSILL
 62
2
 10
6003.688
 20
-8674.498
 30
-1561.474
 70
    32
  0
VERTEX
  8
T68SSILL
 62
2
 10
5999.809
 20
-8676.802
 30
-1561.453
 70
    32
  0
VERTEX
  8
T68SSILL
 62
2
 10
5981.280
 20
-8671.953
 30
-1561.395
 70
    32
  0
VERTEX
  8
T68SSILL
 62
2
 10
5979.345
 20
-8668.137
 30
-1561.397
 70
    32
  0
VERTEX
  8
T68SSILL
 62
2
 10
5956.862
 20
-8662.731
 30
-1561.325
 70
    32
  0
VERTEX
  8
T68SSILL
 62
2
 10
5954.283
 20
-8675.449
 30
-1561.283
 70
    32
  0
VERTEX
  8
T68SSILL
 62
2
 10
5945.871
 20
-8672.856
 30
-1561.258
 70
    32
  0
VERTEX
  8
T68SSILL
 62
2
 10
5948.148
 20
-8660.781
 30
-1561.297
 70
    32
  0
VERTEX
  8
T68SSILL
 62
2
 10
5917.775
 20
-8653.061
 30
-1561.200
 70
    32
  0
VERTEX
  8
T68SSILL
 62
2
 10
5915.616
 20
-8655.662
 30
-1561.186
 70
    32
  0
VERTEX
  8
T68SSILL
 62
2
 10
5908.962
 20
-8653.879
 30
-1561.165
 70
    32
  0
VERTEX
  8
T68SSILL
 62
2
 10
5908.663
 20
-8650.852
 30
-1561.171
 70
    32
  0
VERTEX
  8
T68SSILL
 62
2
 10
5862.566
 20
-8638.894
 30
-1561.026
 70
    32
  0
VERTEX
  8
T68SSILL
 62
2
 10
5863.527
 20
-8632.605
 30
-1561.045
 70
    32
  0
VERTEX
  8
T68SSILL
 62
2
 10
5869.599
 20
-8627.136
 30
-1561.082
 70
    32
  0
VERTEX
  8
T68SSILL
 62
2
 10
5881.983
 20
-8629.087
 30
-1561.124
 70
    32
  0
VERTEX
  8
T68SSILL
 62
2
 10
5887.875
 20
-8638.207
 30
-1561.124
 70
    32
  0
VERTEX
  8
T68SSILL
 62
2
 10
5901.708
 20
-8641.295
 30
-1561.169
 70
    32
  0
VERTEX
  8
T68SSILL
 62
2
 10
5902.967
 20
-8639.867
 30
-1561.177
 70
    32
  0
VERTEX
  8
T68SSILL
 62
2
 10
5909.744
 20
-8641.672
 30
-1561.198
 70
    32
  0
VERTEX
  8
T68SSILL
 62
2
 10
5910.162
 20
-8643.643
 30
-1561.195
 70
    32
  0
VERTEX
  8
T68SSILL
 62
2
 10
5949.500
 20
-8652.597
 30
-1561.322
 70
    32
  0
VERTEX
  8
T68SSILL
 62
2
 10
5952.664
 20
-8648.208
 30
-1561.345
 70
    32
  0
VERTEX
  8
T68SSILL
 62
2
 10
5960.395
 20
-8649.987
 30
-1561.370
 70
    32
  0
VERTEX
  8
T68SSILL
 62
2
 10
5962.168
 20
-8655.104
 30
-1561.364
 70
    32
  0
VERTEX
  8
T68SSILL
 62
2
 10
6018.016
 20
-8670.330
 30
-1561.538
 70
    32
  0
VERTEX
  8
T68SSILL
 62
2
 10
5937.778
 20
-8553.482
 30
-1561.524
 70
    32
  0
VERTEX
  8
T68SSILL
 62
2
 10
5925.850
 20
-8554.014
 30
-1561.478
 70
    32
  0
VERTEX
  8
T68SSILL
 62
2
 10
5913.157
 20
-8533.718
 30
-1561.480
 70
    32
  0
VERTEX
  8
T68SSILL
 62
2
 10
5918.440
 20
-8521.467
 30
-1561.530
 70
    32
  0
VERTEX
  8
T68SSILL
 62
2
 10
5867.077
 20
-8442.965
 30
-1561.384
 70
    32
  0
VERTEX
  8
T68SSILL
 62
2
 10
5887.963
 20
-8429.425
 30
-1558.625
 70
    32
  0
VERTEX
  8
T68SSILL
 62
2
 10
5897.027
 20
-8442.891
 30
-1558.573
 70
    32
  0
VERTEX
  8
T68SSILL
 62
2
 10
5884.426
 20
-8451.345
 30
-1560.535
 70
    32
  0
VERTEX
  8
T68SSILL
 62
2
 10
5971.202
 20
-8582.362
 30
-1560.548
 70
    32
  0
VERTEX
  8
T68SSILL
 62
2
 10
5973.020
 20
-8556.474
 30
-1558.501
 70
    32
  0
VERTEX
  8
T68SSILL
 62
2
 10
5878.821
 20
-8411.124
 30
-1558.677
 70
    32
  0
VERTEX
  8
T68SSILL
 62
2
 10
5822.287
 20
-8323.892
 30
-1548.147
 70
    32
  0
VERTEX
  8
T68SSILL
 62
2
 10
5827.671
 20
-8320.202
 30
-1547.975
 70
    32
  0
VERTEX
  8
T68SSILL
 62
2
 10
5854.600
 20
-8361.757
 30
-1552.990
 70
    32
  0
VERTEX
  8
T68SSILL
 62
2
 10
5869.690
 20
-8352.088
 30
-1552.573
 70
    32
  0
VERTEX
  8
T68SSILL
 62
2
 10
5874.256
 20
-8358.257
 30
-1553.337
 70
    32
  0
VERTEX
  8
T68SSILL
 62
2
 10
5858.920
 20
-8367.884
 30
-1553.742
 70
    32
  0
VERTEX
  8
T68SSILL
 62
2
 10
5881.356
 20
-8401.884
 30
-1557.860
 70
    32
  0
VERTEX
  8
T68SSILL
 62
2
 10
5970.605
 20
-8537.132
 30
-1557.379
 70
    32
  0
VERTEX
  8
T68SSILL
 62
2
 10
5976.729
 20
-8538.318
 30
-1556.804
 70
    32
  0
VERTEX
  8
T68SSILL
 62
2
 10
5980.093
 20
-8514.469
 30
-1554.737
 70
    32
  0
VERTEX
  8
T68SSILL
 62
2
 10
5978.250
 20
-8503.897
 30
-1554.180
 70
    32
  0
VERTEX
  8
T68SSILL
 62
2
 10
5960.300
 20
-8478.135
 30
-1554.273
 70
    32
  0
VERTEX
  8
T68SSILL
 62
2
 10
5952.084
 20
-8471.841
 30
-1554.709
 70
    32
  0
VERTEX
  8
T68SSILL
 62
2
 10
5953.980
 20
-8468.562
 30
-1554.270
 70
    32
  0
VERTEX
  8
T68SSILL
 62
2
 10
5889.745
 20
-8371.312
 30
-1555.160
 70
    32
  0
VERTEX
  8
T68SSILL
 62
2
 10
5885.311
 20
-8364.599
 30
-1554.347
 70
    32
  0
VERTEX
  8
T68SSILL
 62
2
 10
5892.184
 20
-8360.724
 30
-1554.208
 70
    32
  0
VERTEX
  8
T68SSILL
 62
2
 10
5945.148
 20
-8440.579
 30
-1553.222
 70
    32
  0
VERTEX
  8
T68SSILL
 62
2
 10
5960.559
 20
-8440.395
 30
-1551.548
 70
    32
  0
VERTEX
  8
T68SSILL
 62
2
 10
5967.196
 20
-8451.796
 30
-1551.647
 70
    32
  0
VERTEX
  8
T68SSILL
 62
2
 10
5974.577
 20
-8457.060
 30
-1551.228
 70
    32
  0
VERTEX
  8
T68SSILL
 62
2
 10
5965.381
 20
-8470.343
 30
-1553.169
 70
    32
  0
VERTEX
  8
T68SSILL
 62
2
 10
5977.516
 20
-8488.011
 30
-1553.124
 70
    32
  0
VERTEX
  8
T68SSILL
 62
2
 10
5983.939
 20
-8485.641
 30
-1552.262
 70
    32
  0
VERTEX
  8
T68SSILL
 62
2
 10
5989.657
 20
-8448.908
 30
-1549.020
 70
    32
  0
VERTEX
  8
T68SSILL
 62
2
 10
5996.793
 20
-8356.951
 30
-1541.744
 70
    32
  0
VERTEX
  8
T68SSILL
 62
2
 10
5991.660
 20
-8340.755
 30
-1541.447
 70
    32
  0
VERTEX
  8
T68SSILL
 62
2
 10
5883.323
 20
-8110.557
 30
-1540.761
 70
    32
  0
VERTEX
  8
T68SSILL
 62
2
 10
5892.120
 20
-8106.445
 30
-1540.853
 70
    32
  0
VERTEX
  8
T68SSILL
 62
2
 10
5948.459
 20
-8225.332
 30
-1540.818
 70
    32
  0
VERTEX
  8
T68SSILL
 62
2
 10
5960.576
 20
-8232.905
 30
-1540.922
 70
    32
  0
VERTEX
  8
T68SSILL
 62
2
 10
5968.721
 20
-8234.994
 30
-1541.002
 70
    32
  0
VERTEX
  8
T68SSILL
 62
2
 10
5967.090
 20
-8242.719
 30
-1540.957
 70
    32
  0
VERTEX
  8
T68SSILL
 62
2
 10
5962.780
 20
-8243.116
 30
-1540.909
 70
    32
  0
VERTEX
  8
T68SSILL
 62
2
 10
5958.806
 20
-8248.824
 30
-1540.846
 70
    32
  0
VERTEX
  8
T68SSILL
 62
2
 10
6005.320
 20
-8348.869
 30
-1540.945
 70
    32
  0
VERTEX
  8
T68SSILL
 62
2
 10
6007.687
 20
-8362.272
 30
-1541.070
 70
    32
  0
VERTEX
  8
T68SSILL
 62
2
 10
5998.328
 20
-8451.103
 30
-1548.243
 70
    32
  0
VERTEX
  8
T68SSILL
 62
2
 10
5976.826
 20
-8591.563
 30
-1560.599
 70
    32
  0
VERTEX
  8
T68SSILL
 62
2
 10
6005.203
 20
-8636.089
 30
-1560.724
 70
    32
  0
VERTEX
  8
T68SSILL
 62
2
 10
6017.206
 20
-8628.165
 30
-1558.864
 70
    32
  0
VERTEX
  8
T68SSILL
 62
2
 10
6021.704
 20
-8635.462
 30
-1558.900
 70
    32
  0
VERTEX
  8
T68SSILL
 62
2
 10
6009.925
 20
-8643.552
 30
-1560.748
 70
    32
  0
VERTEX
  8
T68SSILL
 62
2
 10
6305.417
 20
-9091.040
 30
-1561.544
 70
    32
  0
VERTEX
  8
T68SSILL
 62
2
 10
6487.310
 20
-9366.496
 30
-1560.189
 70
    32
  0
VERTEX
  8
T68SSILL
 62
2
 10
6504.633
 20
-9385.419
 30
-1560.426
 70
    32
  0
VERTEX
  8
T68SSILL
 62
2
 10
6524.792
 20
-9399.065
 30
-1560.355
 70
    32
  0
VERTEX
  8
T68SSILL
 62
2
 10
6543.902
 20
-9406.094
 30
-1560.301
 70
    32
  0
VERTEX
  8
T68SSILL
 62
2
 10
6571.472
 20
-9408.590
 30
-1560.230
 70
    32
  0
VERTEX
  8
T68SSILL
 62
2
 10
6596.375
 20
-9403.567
 30
-1560.191
 70
    32
  0
VERTEX
  8
T68SSILL
 62
2
 10
6614.986
 20
-9395.351
 30
-1560.203
 70
    32
  0
VERTEX
  8
T68SSILL
 62
2
 10
6837.463
 20
-9235.725
 30
-1560.317
 70
    32
  0
VERTEX
  8
T68SSILL
 62
2
 10
6840.656
 20
-9228.675
 30
-1560.327
 70
    32
  0
VERTEX
  8
T68SSILL
 62
2
 10
6840.767
 20
-9224.587
 30
-1560.336
 70
    32
  0
VERTEX
  8
T68SSILL
 62
2
 10
6810.451
 20
-9181.585
 30
-1560.414
 70
    32
  0
VERTEX
  8
T68SSILL
 62
2
 10
6808.272
 20
-9168.083
 30
-1560.377
 70
    32
  0
VERTEX
  8
T68SSILL
 62
2
 10
6812.363
 20
-9154.865
 30
-1560.324
 70
    32
  0
VERTEX
  8
T68SSILL
 62
2
 10
6818.086
 20
-9148.172
 30
-1560.287
 70
    32
  0
VERTEX
  8
T68SSILL
 62
2
 10
6912.837
 20
-9080.528
 30
-1559.808
 70
    32
  0
VERTEX
  8
T68SSILL
 62
2
 10
6929.278
 20
-9076.248
 30
-1559.749
 70
    32
  0
VERTEX
  8
T68SSILL
 62
2
 10
6943.725
 20
-9079.785
 30
-1559.719
 70
    32
  0
VERTEX
  8
T68SSILL
 62
2
 10
6954.129
 20
-9090.547
 30
-1559.725
 70
    32
  0
VERTEX
  8
T68SSILL
 62
2
 10
6976.633
 20
-9123.534
 30
-1559.773
 70
    32
  0
VERTEX
  8
T68SSILL
 62
2
 10
6992.456
 20
-9113.087
 30
-1559.685
 70
    32
  0
VERTEX
  8
T68SSILL
 62
2
 10
6998.658
 20
-9120.245
 30
-1559.651
 70
    32
  0
VERTEX
  8
T68SSILL
 62
2
 10
7400.591
 20
-8832.344
 30
-1557.409
 70
    32
  0
VERTEX
  8
T68SSILL
 62
2
 10
7406.610
 20
-8825.426
 30
-1557.375
 70
    32
  0
VERTEX
  8
T68SSILL
 62
2
 10
7410.844
 20
-8817.499
 30
-1557.351
 70
    32
  0
VERTEX
  8
T68SSILL
 62
2
 10
7412.624
 20
-8810.219
 30
-1557.341
 70
    32
  0
VERTEX
  8
T68SSILL
 62
2
 10
7412.940
 20
-8606.680
 30
-1557.299
 70
    32
  0
VERTEX
  8
T68SSILL
 62
2
 10
7415.657
 20
-8598.742
 30
-1557.261
 70
    32
  0
VERTEX
  8
T68SSILL
 62
2
 10
7423.153
 20
-8589.171
 30
-1557.214
 70
    32
  0
VERTEX
  8
T68SSILL
 62
2
 10
7456.533
 20
-8565.087
 30
-1557.102
 70
    32
  0
VERTEX
  8
T68SSILL
 62
2
 10
7462.348
 20
-8551.743
 30
-1557.045
 70
    32
  0
VERTEX
  8
T68SSILL
 62
2
 10
7467.700
 20
-8527.310
 30
-1556.938
 70
    32
  0
VERTEX
  8
T68SSILL
 62
2
 10
7463.558
 20
-8503.619
 30
-1556.833
 70
    32
  0
VERTEX
  8
T68SSILL
 62
2
 10
7402.178
 20
-8351.476
 30
-1556.152
 70
    32
  0
VERTEX
  8
T68SSILL
 62
2
 10
7398.861
 20
-8349.820
 30
-1556.146
 70
    32
  0
VERTEX
  8
T68SSILL
 62
2
 10
7399.569
 20
-8344.232
 30
-1556.125
 70
    32
  0
VERTEX
  8
T68SSILL
 62
2
 10
7348.919
 20
-8223.399
 30
-1554.827
 70
    32
  0
VERTEX
  8
T68SSILL
 62
2
 10
7347.338
 20
-8202.391
 30
-1554.678
 70
    32
  0
VERTEX
  8
T68SSILL
 62
2
 10
7356.535
 20
-8204.150
 30
-1554.780
 70
    32
  0
VERTEX
  8
T68SSILL
 62
2
 10
7356.610
 20
-8216.050
 30
-1554.856
 70
    32
  0
VERTEX
  8
T68SSILL
 62
2
 10
7402.050
 20
-8327.981
 30
-1556.015
 70
    32
  0
VERTEX
  8
T68SSILL
 62
2
 10
7409.556
 20
-8300.635
 30
-1555.916
 70
    32
  0
VERTEX
  8
T68SSILL
 62
2
 10
7422.371
 20
-8284.530
 30
-1555.941
 70
    32
  0
VERTEX
  8
T68SSILL
 62
2
 10
7417.223
 20
-8274.898
 30
-1555.829
 70
    32
  0
VERTEX
  8
T68SSILL
 62
2
 10
7407.153
 20
-8265.923
 30
-1555.672
 70
    32
  0
VERTEX
  8
T68SSILL
 62
2
 10
7398.456
 20
-8248.015
 30
-1555.473
 70
    32
  0
VERTEX
  8
T68SSILL
 62
2
 10
7393.146
 20
-8240.759
 30
-1555.374
 70
    32
  0
VERTEX
  8
T68SSILL
 62
2
 10
7380.942
 20
-8214.329
 30
-1555.086
 70
    32
  0
VERTEX
  8
T68SSILL
 62
2
 10
7370.887
 20
-8200.928
 30
-1554.902
 70
    32
  0
VERTEX
  8
T68SSILL
 62
2
 10
7367.480
 20
-8191.475
 30
-1554.808
 70
    32
  0
VERTEX
  8
T68SSILL
 62
2
 10
7370.572
 20
-8182.842
 30
-1554.784
 70
    32
  0
VERTEX
  8
T68SSILL
 62
2
 10
7325.756
 20
-8096.928
 30
-1553.797
 70
    32
  0
VERTEX
  8
T68SSILL
 62
2
 10
7333.483
 20
-8092.902
 30
-1553.848
 70
    32
  0
VERTEX
  8
T68SSILL
 62
2
 10
7378.192
 20
-8179.430
 30
-1554.838
 70
    32
  0
VERTEX
  8
T68SSILL
 62
2
 10
7384.600
 20
-8182.577
 30
-1554.922
 70
    32
  0
VERTEX
  8
T68SSILL
 62
2
 10
7385.257
 20
-8187.500
 30
-1554.959
 70
    32
  0
VERTEX
  8
T68SSILL
 62
2
 10
7392.275
 20
-8192.587
 30
-1555.061
 70
    32
  0
VERTEX
  8
T68SSILL
 62
2
 10
7393.428
 20
-8200.824
 30
-1555.124
 70
    32
  0
VERTEX
  8
T68SSILL
 62
2
 10
7400.917
 20
-8212.257
 30
-1555.271
 70
    32
  0
VERTEX
  8
T68SSILL
 62
2
 10
7408.440
 20
-8216.990
 30
-1555.375
 70
    32
  0
VERTEX
  8
T68SSILL
 62
2
 10
7418.830
 20
-8232.094
 30
-1555.574
 70
    32
  0
VERTEX
  8
T68SSILL
 62
2
 10
7418.017
 20
-8243.973
 30
-1555.641
 70
    32
  0
VERTEX
  8
T68SSILL
 62
2
 10
7419.373
 20
-8253.574
 30
-1555.715
 70
    32
  0
VERTEX
  8
T68SSILL
 62
2
 10
7434.519
 20
-8272.231
 30
-1555.964
 70
    32
  0
VERTEX
  8
T68SSILL
 62
2
 10
7441.150
 20
-8264.344
 30
-1555.953
 70
    32
  0
VERTEX
  8
T68SSILL
 62
2
 10
7448.147
 20
-8259.432
 30
-1555.951
 70
    32
  0
VERTEX
  8
T68SSILL
 62
2
 10
7448.402
 20
-8250.745
 30
-1555.926
 70
    32
  0
VERTEX
  8
T68SSILL
 62
2
 10
7442.317
 20
-8241.772
 30
-1555.868
 70
    32
  0
VERTEX
  8
T68SSILL
 62
2
 10
7463.419
 20
-8229.648
 30
-1555.891
 70
    32
  0
VERTEX
  8
T68SSILL
 62
2
 10
7475.025
 20
-8232.375
 30
-1555.920
 70
    32
  0
VERTEX
  8
T68SSILL
 62
2
 10
7481.486
 20
-8236.669
 30
-1555.943
 70
    32
  0
VERTEX
  8
T68SSILL
 62
2
 10
7501.551
 20
-8221.074
 30
-1555.934
 70
    32
  0
VERTEX
  8
T68SSILL
 62
2
 10
7510.901
 20
-8206.324
 30
-1555.907
 70
    32
  0
VERTEX
  8
T68SSILL
 62
2
 10
7514.447
 20
-8191.127
 30
-1555.870
 70
    32
  0
VERTEX
  8
T68SSILL
 62
2
 10
7513.894
 20
-8178.377
 30
-1555.832
 70
    32
  0
VERTEX
  8
T68SSILL
 62
2
 10
7469.121
 20
-7978.135
 30
-1554.495
 70
    32
  0
VERTEX
  8
T68SSILL
 62
2
 10
7476.440
 20
-7976.073
 30
-1554.565
 70
    32
  0
VERTEX
  8
T68SSILL
 62
2
 10
7495.066
 20
-8058.924
 30
-1555.232
 70
    32
  0
VERTEX
  8
T68SSILL
 62
2
 10
7502.086
 20
-8065.087
 30
-1555.341
 70
    32
  0
VERTEX
  8
T68SSILL
 62
2
 10
7510.548
 20
-8080.360
 30
-1555.521
 70
    32
  0
VERTEX
  8
T68SSILL
 62
2
 10
7514.409
 20
-8084.326
 30
-1555.561
 70
    32
  0
VERTEX
  8
T68SSILL
 62
2
 10
7531.900
 20
-8086.691
 30
-1555.598
 70
    32
  0
VERTEX
  8
T68SSILL
 62
2
 10
7547.809
 20
-8083.275
 30
-1555.616
 70
    32
  0
VERTEX
  8
T68SSILL
 62
2
 10
7554.162
 20
-8088.182
 30
-1555.642
 70
    32
  0
VERTEX
  8
T68SSILL
 62
2
 10
7556.793
 20
-8094.843
 30
-1555.666
 70
    32
  0
VERTEX
  8
T68SSILL
 62
2
 10
7551.205
 20
-8100.382
 30
-1555.672
 70
    32
  0
VERTEX
  8
T68SSILL
 62
2
 10
7554.953
 20
-8105.719
 30
-1555.694
 70
    32
  0
VERTEX
  8
T68SSILL
 62
2
 10
7557.505
 20
-8118.250
 30
-1555.735
 70
    32
  0
VERTEX
  8
T68SSILL
 62
2
 10
7547.310
 20
-8128.423
 30
-1555.746
 70
    32
  0
VERTEX
  8
T68SSILL
 62
2
 10
7542.089
 20
-8138.012
 30
-1555.765
 70
    32
  0
VERTEX
  8
T68SSILL
 62
2
 10
7530.771
 20
-8145.205
 30
-1555.766
 70
    32
  0
VERTEX
  8
T68SSILL
 62
2
 10
7517.044
 20
-8157.963
 30
-1555.778
 70
    32
  0
VERTEX
  8
T68SSILL
 62
2
 10
7521.052
 20
-8175.075
 30
-1555.835
 70
    32
  0
VERTEX
  8
T68SSILL
 62
2
 10
7521.305
 20
-8185.558
 30
-1555.866
 70
    32
  0
VERTEX
  8
T68SSILL
 62
2
 10
7516.442
 20
-8207.926
 30
-1555.922
 70
    32
  0
VERTEX
  8
T68SSILL
 62
2
 10
7526.205
 20
-8219.378
 30
-1555.972
 70
    32
  0
VERTEX
  8
T68SSILL
 62
2
 10
7541.156
 20
-8217.818
 30
-1555.994
 70
    32
  0
VERTEX
  8
T68SSILL
 62
2
 10
7548.694
 20
-8208.003
 30
-1555.979
 70
    32
  0
VERTEX
  8
T68SSILL
 62
2
 10
7552.418
 20
-8206.250
 30
-1555.980
 70
    32
  0
VERTEX
  8
T68SSILL
 62
2
 10
7567.321
 20
-8211.832
 30
-1556.022
 70
    32
  0
VERTEX
  8
T68SSILL
 62
2
 10
7575.828
 20
-8212.751
 30
-1556.040
 70
    32
  0
VERTEX
  8
T68SSILL
 62
2
 10
7584.334
 20
-8208.609
 30
-1556.043
 70
    32
  0
VERTEX
  8
T68SSILL
 62
2
 10
7585.105
 20
-8156.485
 30
-1555.894
 70
    32
  0
VERTEX
  8
T68SSILL
 62
2
 10
7592.631
 20
-8156.431
 30
-1555.907
 70
    32
  0
VERTEX
  8
T68SSILL
 62
2
 10
7593.240
 20
-8190.618
 30
-1556.007
 70
    32
  0
VERTEX
  8
T68SSILL
 62
2
 10
7608.057
 20
-8206.813
 30
-1556.079
 70
    32
  0
VERTEX
  8
T68SSILL
 62
2
 10
7608.918
 20
-8218.162
 30
-1556.113
 70
    32
  0
VERTEX
  8
T68SSILL
 62
2
 10
7605.794
 20
-8229.509
 30
-1556.138
 70
    32
  0
VERTEX
  8
T68SSILL
 62
2
 10
7593.550
 20
-8235.845
 30
-1556.135
 70
    32
  0
VERTEX
  8
T68SSILL
 62
2
 10
7594.582
 20
-8366.608
 30
-1556.482
 70
    32
  0
VERTEX
  8
T68SSILL
 62
2
 10
7642.706
 20
-8347.572
 30
-1556.509
 70
    32
  0
VERTEX
  8
T68SSILL
 62
2
 10
7649.196
 20
-8362.184
 30
-1556.558
 70
    32
  0
VERTEX
  8
T68SSILL
 62
2
 10
7612.349
 20
-8375.348
 30
-1556.534
 70
    32
  0
VERTEX
  8
T68SSILL
 62
2
 10
7605.805
 20
-8373.697
 30
-1556.519
 70
    32
  0
VERTEX
  8
T68SSILL
 62
2
 10
7593.610
 20
-8384.090
 30
-1556.527
 70
    32
  0
VERTEX
  8
T68SSILL
 62
2
 10
7592.642
 20
-8469.521
 30
-1556.750
 70
    32
  0
VERTEX
  8
T68SSILL
 62
2
 10
7613.298
 20
-8463.203
 30
-1556.767
 70
    32
  0
VERTEX
  8
T68SSILL
 62
2
 10
7616.717
 20
-8471.140
 30
-1556.793
 70
    32
  0
VERTEX
  8
T68SSILL
 62
2
 10
7585.291
 20
-8484.051
 30
-1556.777
 70
    32
  0
VERTEX
  8
T68SSILL
 62
2
 10
7550.597
 20
-8508.411
 30
-1556.874
 70
    32
  0
VERTEX
  8
T68SSILL
 62
2
 10
7550.370
 20
-8521.278
 30
-1556.931
 70
    32
  0
VERTEX
  8
T68SSILL
 62
2
 10
7543.672
 20
-8533.519
 30
-1556.983
 70
    32
  0
VERTEX
  8
T68SSILL
 62
2
 10
7547.816
 20
-8553.224
 30
-1557.070
 70
    32
  0
VERTEX
  8
T68SSILL
 62
2
 10
7564.521
 20
-8551.402
 30
-1557.066
 70
    32
  0
VERTEX
  8
T68SSILL
 62
2
 10
7569.004
 20
-8545.670
 30
-1557.042
 70
    32
  0
VERTEX
  8
T68SSILL
 62
2
 10
7575.907
 20
-8545.993
 30
-1557.045
 70
    32
  0
VERTEX
  8
T68SSILL
 62
2
 10
7587.425
 20
-8541.998
 30
-1557.030
 70
    32
  0
VERTEX
  8
T68SSILL
 62
2
 10
7591.588
 20
-8545.320
 30
-1557.046
 70
    32
  0
VERTEX
  8
T68SSILL
 62
2
 10
7589.027
 20
-8556.703
 30
-1557.095
 70
    32
  0
VERTEX
  8
T68SSILL
 62
2
 10
7589.920
 20
-8560.276
 30
-1557.111
 70
    32
  0
VERTEX
  8
T68SSILL
 62
2
 10
7596.825
 20
-8566.735
 30
-1557.141
 70
    32
  0
VERTEX
  8
T68SSILL
 62
2
 10
7598.218
 20
-8571.787
 30
-1557.163
 70
    32
  0
VERTEX
  8
T68SSILL
 62
2
 10
7591.378
 20
-8580.144
 30
-1557.161
 70
    32
  0
VERTEX
  8
T68SSILL
 62
2
 10
7582.428
 20
-8582.120
 30
-1557.159
 70
    32
  0
VERTEX
  8
T68SSILL
 62
2
 10
7575.299
 20
-8621.048
 30
-1557.105
 70
    32
  0
VERTEX
  8
T68SSILL
 62
2
 10
7580.304
 20
-8631.856
 30
-1557.090
 70
    32
  0
VERTEX
  8
T68SSILL
 62
2
 10
7580.593
 20
-8636.715
 30
-1557.083
 70
    32
  0
VERTEX
  8
T68SSILL
 62
2
 10
7572.602
 20
-8658.156
 30
-1557.054
 70
    32
  0
VERTEX
  8
T68SSILL
 62
2
 10
7571.425
 20
-8678.259
 30
-1557.026
 70
    32
  0
VERTEX
  8
T68SSILL
 62
2
 10
7580.281
 20
-8686.578
 30
-1557.014
 70
    32
  0
VERTEX
  8
T68SSILL
 62
2
 10
7580.766
 20
-8692.484
 30
-1557.005
 70
    32
  0
VERTEX
  8
T68SSILL
 62
2
 10
7586.162
 20
-8699.249
 30
-1556.995
 70
    32
  0
VERTEX
  8
T68SSILL
 62
2
 10
7581.377
 20
-8720.808
 30
-1556.966
 70
    32
  0
VERTEX
  8
T68SSILL
 62
2
 10
7587.137
 20
-8749.717
 30
-1556.925
 70
    32
  0
VERTEX
  8
T68SSILL
 62
2
 10
7578.552
 20
-8769.852
 30
-1556.898
 70
    32
  0
VERTEX
  8
T68SSILL
 62
2
 10
7571.940
 20
-8776.540
 30
-1556.889
 70
    32
  0
VERTEX
  8
T68SSILL
 62
2
 10
7557.973
 20
-8784.408
 30
-1556.879
 70
    32
  0
VERTEX
  8
T68SSILL
 62
2
 10
7533.739
 20
-8787.316
 30
-1556.877
 70
    32
  0
VERTEX
  8
T68SSILL
 62
2
 10
7525.332
 20
-8780.404
 30
-1556.887
 70
    32
  0
VERTEX
  8
T68SSILL
 62
2
 10
7536.371
 20
-8744.439
 30
-1556.936
 70
    32
  0
VERTEX
  8
T68SSILL
 62
2
 10
7548.705
 20
-8735.779
 30
-1556.947
 70
    32
  0
VERTEX
  8
T68SSILL
 62
2
 10
7553.091
 20
-8728.069
 30
-1556.958
 70
    32
  0
VERTEX
  8
T68SSILL
 62
2
 10
7550.016
 20
-8723.228
 30
-1556.965
 70
    32
  0
VERTEX
  8
T68SSILL
 62
2
 10
7530.679
 20
-8722.375
 30
-1556.967
 70
    32
  0
VERTEX
  8
T68SSILL
 62
2
 10
7518.518
 20
-8731.129
 30
-1556.956
 70
    32
  0
VERTEX
  8
T68SSILL
 62
2
 10
7515.993
 20
-8739.570
 30
-1556.944
 70
    32
  0
VERTEX
  8
T68SSILL
 62
2
 10
7515.154
 20
-8756.859
 30
-1556.920
 70
    32
  0
VERTEX
  8
T68SSILL
 62
2
 10
7503.360
 20
-8771.509
 30
-1556.901
 70
    32
  0
VERTEX
  8
T68SSILL
 62
2
 10
7499.947
 20
-8764.170
 30
-1556.911
 70
    32
  0
VERTEX
  8
T68SSILL
 62
2
 10
7491.203
 20
-8775.507
 30
-1556.904
 70
    32
  0
VERTEX
  8
T68SSILL
 62
2
 10
7469.949
 20
-8793.876
 30
-1557.023
 70
    32
  0
VERTEX
  8
T68SSILL
 62
2
 10
7470.569
 20
-8801.948
 30
-1557.020
 70
    32
  0
VERTEX
  8
T68SSILL
 62
2
 10
7465.224
 20
-8810.440
 30
-1557.051
 70
    32
  0
VERTEX
  8
T68SSILL
 62
2
 10
7446.210
 20
-8810.544
 30
-1557.156
 70
    32
  0
VERTEX
  8
T68SSILL
 62
2
 10
7374.891
 20
-8860.619
 30
-1557.553
 70
    32
  0
VERTEX
  8
T68SSILL
 62
2
 10
7388.846
 20
-8864.390
 30
-1557.476
 70
    32
  0
VERTEX
  8
T68SSILL
 62
2
 10
7400.044
 20
-8874.511
 30
-1557.415
 70
    32
  0
VERTEX
  8
T68SSILL
 62
2
 10
7407.564
 20
-8872.031
 30
-1557.374
 70
    32
  0
VERTEX
  8
T68SSILL
 62
2
 10
7412.076
 20
-8866.494
 30
-1557.348
 70
    32
  0
VERTEX
  8
T68SSILL
 62
2
 10
7415.666
 20
-8872.373
 30
-1557.329
 70
    32
  0
VERTEX
  8
T68SSILL
 62
2
 10
7412.865
 20
-8877.894
 30
-1557.345
 70
    32
  0
VERTEX
  8
T68SSILL
 62
2
 10
7421.045
 20
-8882.488
 30
-1557.300
 70
    32
  0
VERTEX
  8
T68SSILL
 62
2
 10
7427.917
 20
-8896.724
 30
-1557.263
 70
    32
  0
VERTEX
  8
T68SSILL
 62
2
 10
7434.027
 20
-8892.542
 30
-1557.229
 70
    32
  0
VERTEX
  8
T68SSILL
 62
2
 10
7445.845
 20
-8896.951
 30
-1557.164
 70
    32
  0
VERTEX
  8
T68SSILL
 62
2
 10
7449.851
 20
-8895.754
 30
-1557.142
 70
    32
  0
VERTEX
  8
T68SSILL
 62
2
 10
7453.744
 20
-8886.882
 30
-1557.120
 70
    32
  0
VERTEX
  8
T68SSILL
 62
2
 10
7463.984
 20
-8877.539
 30
-1557.062
 70
    32
  0
VERTEX
  8
T68SSILL
 62
2
 10
7469.613
 20
-8880.802
 30
-1557.032
 70
    32
  0
VERTEX
  8
T68SSILL
 62
2
 10
7475.871
 20
-8889.868
 30
-1556.998
 70
    32
  0
VERTEX
  8
T68SSILL
 62
2
 10
7467.237
 20
-8905.946
 30
-1557.047
 70
    32
  0
VERTEX
  8
T68SSILL
 62
2
 10
7463.803
 20
-8902.434
 30
-1557.065
 70
    32
  0
VERTEX
  8
T68SSILL
 62
2
 10
7456.519
 20
-8908.625
 30
-1557.106
 70
    32
  0
VERTEX
  8
T68SSILL
 62
2
 10
7424.291
 20
-8905.516
 30
-1557.284
 70
    32
  0
VERTEX
  8
T68SSILL
 62
2
 10
7424.773
 20
-8909.270
 30
-1557.281
 70
    32
  0
VERTEX
  8
T68SSILL
 62
2
 10
7437.181
 20
-8926.942
 30
-1557.214
 70
    32
  0
VERTEX
  8
T68SSILL
 62
2
 10
7430.510
 20
-8932.164
 30
-1557.251
 70
    32
  0
VERTEX
  8
T68SSILL
 62
2
 10
7415.904
 20
-8912.590
 30
-1557.331
 70
    32
  0
VERTEX
  8
T68SSILL
 62
2
 10
7407.216
 20
-8911.259
 30
-1557.379
 70
    32
  0
VERTEX
  8
T68SSILL
 62
2
 10
7405.104
 20
-8908.865
 30
-1557.390
 70
    32
  0
VERTEX
  8
T68SSILL
 62
2
 10
7405.298
 20
-8897.637
 30
-1557.388
 70
    32
  0
VERTEX
  8
T68SSILL
 62
2
 10
7387.336
 20
-8873.742
 30
-1557.486
 70
    32
  0
VERTEX
  8
T68SSILL
 62
2
 10
7378.940
 20
-8869.299
 30
-1557.532
 70
    32
  0
VERTEX
  8
T68SSILL
 62
2
 10
7367.466
 20
-8869.063
 30
-1557.595
 70
    32
  0
VERTEX
  8
T68SSILL
 62
2
 10
7359.939
 20
-8871.226
 30
-1557.637
 70
    32
  0
VERTEX
  8
T68SSILL
 62
2
 10
7052.655
 20
-9092.576
 30
-1559.351
 70
    32
  0
VERTEX
  8
T68SSILL
 62
2
 10
7218.974
 20
-9120.777
 30
-1558.434
 70
    32
  0
VERTEX
  8
T68SSILL
 62
2
 10
7236.222
 20
-9132.171
 30
-1558.340
 70
    32
  0
VERTEX
  8
T68SSILL
 62
2
 10
7253.127
 20
-9153.994
 30
-1558.248
 70
    32
  0
VERTEX
  8
T68SSILL
 62
2
 10
7269.963
 20
-9142.388
 30
-1558.154
 70
    32
  0
VERTEX
  8
T68SSILL
 62
2
 10
7273.634
 20
-9147.673
 30
-1558.134
 70
    32
  0
VERTEX
  8
T68SSILL
 62
2
 10
7256.930
 20
-9159.616
 30
-1558.227
 70
    32
  0
VERTEX
  8
T68SSILL
 62
2
 10
7733.252
 20
-9824.348
 30
-1555.647
 70
    32
  0
VERTEX
  8
T68SSILL
 62
2
 10
7726.824
 20
-9828.502
 30
-1555.652
 70
    32
  0
VERTEX
  8
T68SSILL
 62
2
 10
7238.514
 20
-9147.650
 30
-1558.328
 70
    32
  0
VERTEX
  8
T68SSILL
 62
2
 10
7230.488
 20
-9138.546
 30
-1558.372
 70
    32
  0
VERTEX
  8
T68SSILL
 62
2
 10
7215.362
 20
-9129.969
 30
-1558.455
 70
    32
  0
VERTEX
  8
T68SSILL
 62
2
 10
7054.278
 20
-9101.816
 30
-1559.342
 70
    32
  0
VERTEX
  8
T68SSILL
 62
2
 10
7032.797
 20
-9106.017
 30
-1559.461
 70
    32
  0
VERTEX
  8
T68SSILL
 62
2
 10
6561.912
 20
-9444.462
 30
-1560.173
 70
    32
  0
VERTEX
  8
T68SSILL
 62
2
 10
6567.131
 20
-9452.214
 30
-1560.132
 70
    32
  0
VERTEX
  8
T68SSILL
 62
2
 10
6558.784
 20
-9457.966
 30
-1560.137
 70
    32
  0
VERTEX
  8
T68SSILL
 62
2
 10
6553.002
 20
-9450.183
 30
-1560.179
 70
    32
  0
VERTEX
  8
T68SSILL
 62
2
 10
6369.533
 20
-9581.483
 30
-1559.962
 70
    32
  0
VERTEX
  8
T68SSILL
 62
2
 10
6380.793
 20
-9604.958
 30
-1559.895
 70
    32
  0
VERTEX
  8
T68SSILL
 62
2
 10
6375.337
 20
-9613.085
 30
-1559.860
 70
    32
  0
VERTEX
  8
T68SSILL
 62
2
 10
6366.762
 20
-9613.366
 30
-1559.849
 70
    32
  0
VERTEX
  8
T68SSILL
 62
2
 10
6352.859
 20
-9592.105
 30
-1559.905
 70
    32
  0
VERTEX
  8
T68SSILL
 62
2
 10
5730.532
 20
-10039.545
 30
-1557.598
 70
    32
  0
VERTEX
  8
T68SSILL
 62
2
 10
5723.467
 20
-10045.391
 30
-1557.569
 70
    32
  0
VERTEX
  8
T68SSILL
 62
2
 10
5715.529
 20
-10055.443
 30
-1557.525
 70
    32
  0
VERTEX
  8
T68SSILL
 62
2
 10
5712.125
 20
-10063.964
 30
-1557.491
 70
    32
  0
VERTEX
  8
T68SSILL
 62
2
 10
5710.294
 20
-10074.821
 30
-1557.452
 70
    32
  0
VERTEX
  8
T68SSILL
 62
2
 10
5711.808
 20
-10091.076
 30
-1557.397
 70
    32
  0
VERTEX
  8
T68SSILL
 62
2
 10
5717.562
 20
-10103.735
 30
-1557.361
 70
    32
  0
VERTEX
  8
T68SSILL
 62
2
 10
5751.618
 20
-10150.250
 30
-1557.242
 70
    32
  0
VERTEX
  8
T68SSILL
 62
2
 10
5755.615
 20
-10149.911
 30
-1557.248
 70
    32
  0
VERTEX
  8
T68SSILL
 62
2
 10
5761.500
 20
-10159.541
 30
-1557.222
 70
    32
  0
VERTEX
  8
T68SSILL
 62
2
 10
5760.583
 20
-10162.684
 30
-1557.210
 70
    32
  0
VERTEX
  8
T68SSILL
 62
2
 10
6533.160
 20
-11237.768
 30
-1554.337
 70
    32
  0
VERTEX
  8
T68SSILL
 62
2
 10
6601.373
 20
-11188.293
 30
-1554.642
 70
    32
  0
VERTEX
  8
T68SSILL
 62
2
 10
6605.431
 20
-11194.364
 30
-1554.624
 70
    32
  0
VERTEX
  8
T68SSILL
 62
2
 10
6603.743
 20
-11195.564
 30
-1554.616
 70
    32
  0
VERTEX
  8
T68SSILL
 62
2
 10
6620.958
 20
-11227.572
 30
-1554.514
 70
    32
  0
VERTEX
  8
T68SSILL
 62
2
 10
6632.141
 20
-11221.905
 30
-1554.554
 70
    32
  0
VERTEX
  8
T68SSILL
 62
2
 10
6635.309
 20
-11228.499
 30
-1554.533
 70
    32
  0
VERTEX
  8
T68SSILL
 62
2
 10
6626.357
 20
-11239.593
 30
-1554.474
 70
    32
  0
VERTEX
  8
T68SSILL
 62
2
 10
6644.262
 20
-11272.285
 30
-1554.371
 70
    32
  0
VERTEX
  8
T68SSILL
 62
2
 10
6656.000
 20
-11265.577
 30
-1554.416
 70
    32
  0
VERTEX
  8
T68SSILL
 62
2
 10
6659.385
 20
-11271.262
 30
-1554.398
 70
    32
  0
VERTEX
  8
T68SSILL
 62
2
 10
6650.752
 20
-11284.932
 30
-1554.330
 70
    32
  0
VERTEX
  8
T68SSILL
 62
2
 10
6662.434
 20
-11307.483
 30
-1554.257
 70
    32
  0
VERTEX
  8
T68SSILL
 62
2
 10
6752.213
 20
-11243.589
 30
-1554.654
 70
    32
  0
VERTEX
  8
T68SSILL
 62
2
 10
6757.384
 20
-11250.272
 30
-1554.635
 70
    32
  0
VERTEX
  8
T68SSILL
 62
2
 10
6675.896
 20
-11308.069
 30
-1554.276
 70
    32
  0
VERTEX
  8
T68SSILL
 62
2
 10
6674.879
 20
-11331.109
 30
-1554.182
 70
    32
  0
VERTEX
  8
T68SSILL
 62
2
 10
6679.410
 20
-11346.010
 30
-1554.129
 70
    32
  0
VERTEX
  8
T68SSILL
 62
2
 10
6680.441
 20
-11355.521
 30
-1554.092
 70
    32
  0
VERTEX
  8
T68SSILL
 62
2
 10
6676.921
 20
-11368.799
 30
-1554.033
 70
    32
  0
VERTEX
  8
T68SSILL
 62
2
 10
6688.309
 20
-11384.551
 30
-1553.988
 70
    32
  0
VERTEX
  8
T68SSILL
 62
2
 10
6949.295
 20
-11198.577
 30
-1554.697
 70
    32
  0
VERTEX
  8
T68SSILL
 62
2
 10
6990.721
 20
-11136.750
 30
-1554.502
 70
    32
  0
VERTEX
  8
T68SSILL
 62
2
 10
6990.939
 20
-11125.094
 30
-1554.469
 70
    32
  0
VERTEX
  8
T68SSILL
 62
2
 10
7001.887
 20
-11110.559
 30
-1554.426
 70
    32
  0
VERTEX
  8
T68SSILL
 62
2
 10
6999.794
 20
-11099.588
 30
-1554.452
 70
    32
  0
VERTEX
  8
T68SSILL
 62
2
 10
7008.586
 20
-11091.094
 30
-1554.413
 70
    32
  0
VERTEX
  8
T68SSILL
 62
2
 10
7014.907
 20
-11091.225
 30
-1554.377
 70
    32
  0
VERTEX
  8
T68SSILL
 62
2
 10
7022.965
 20
-11080.031
 30
-1554.375
 70
    32
  0
VERTEX
  8
T68SSILL
 62
2
 10
7027.119
 20
-11069.996
 30
-1554.397
 70
    32
  0
VERTEX
  8
T68SSILL
 62
2
 10
7024.422
 20
-11043.344
 30
-1554.479
 70
    32
  0
VERTEX
  8
T68SSILL
 62
2
 10
7013.905
 20
-11036.847
 30
-1554.518
 70
    32
  0
VERTEX
  8
T68SSILL
 62
2
 10
6977.096
 20
-11035.369
 30
-1554.666
 70
    32
  0
VERTEX
  8
T68SSILL
 62
2
 10
6975.914
 20
-11022.354
 30
-1554.690
 70
    32
  0
VERTEX
  8
T68SSILL
 62
2
 10
7004.800
 20
-11024.622
 30
-1554.572
 70
    32
  0
VERTEX
  8
T68SSILL
 62
2
 10
7015.341
 20
-11020.256
 30
-1554.564
 70
    32
  0
VERTEX
  8
T68SSILL
 62
2
 10
7017.979
 20
-11016.559
 30
-1554.570
 70
    32
  0
VERTEX
  8
T68SSILL
 62
2
 10
7018.070
 20
-10993.835
 30
-1554.635
 70
    32
  0
VERTEX
  8
T68SSILL
 62
2
 10
7013.923
 20
-10971.649
 30
-1554.708
 70
    32
  0
VERTEX
  8
T68SSILL
 62
2
 10
7023.669
 20
-10970.854
 30
-1554.691
 70
    32
  0
VERTEX
  8
T68SSILL
 62
2
 10
7034.341
 20
-11019.338
 30
-1554.530
 70
    32
  0
VERTEX
  8
T68SSILL
 62
2
 10
7045.602
 20
-11022.193
 30
-1554.500
 70
    32
  0
VERTEX
  8
T68SSILL
 62
2
 10
7044.734
 20
-11026.568
 30
-1554.489
 70
    32
  0
VERTEX
  8
T68SSILL
 62
2
 10
7036.523
 20
-11028.314
 30
-1554.500
 70
    32
  0
VERTEX
  8
T68SSILL
 62
2
 10
7043.535
 20
-11058.447
 30
-1554.398
 70
    32
  0
VERTEX
  8
T68SSILL
 62
2
 10
7057.878
 20
-11037.345
 30
-1554.432
 70
    32
  0
VERTEX
  8
T68SSILL
 62
2
 10
7055.106
 20
-11022.362
 30
-1554.481
 70
    32
  0
VERTEX
  8
T68SSILL
 62
2
 10
7056.888
 20
-11019.023
 30
-1554.487
 70
    32
  0
VERTEX
  8
T68SSILL
 62
2
 10
7054.399
 20
-10989.295
 30
-1554.579
 70
    32
  0
VERTEX
  8
T68SSILL
 62
2
 10
7062.185
 20
-10981.777
 30
-1554.585
 70
    32
  0
VERTEX
  8
T68SSILL
 62
2
 10
7069.977
 20
-10984.158
 30
-1554.520
 70
    32
  0
VERTEX
  8
T68SSILL
 62
2
 10
7073.631
 20
-10988.602
 30
-1554.482
 70
    32
  0
VERTEX
  8
T68SSILL
 62
2
 10
7068.441
 20
-11002.772
 30
-1554.512
 70
    32
  0
VERTEX
  8
T68SSILL
 62
2
 10
7068.387
 20
-11014.310
 30
-1554.479
 70
    32
  0
VERTEX
  8
T68SSILL
 62
2
 10
7070.409
 20
-11018.908
 30
-1554.462
 70
    32
  0
VERTEX
  8
T68SSILL
 62
2
 10
7088.359
 20
-10990.392
 30
-1554.282
 70
    32
  0
VERTEX
  8
T68SSILL
 62
2
 10
7088.970
 20
-10986.956
 30
-1554.263
 70
    32
  0
VERTEX
  8
T68SSILL
 62
2
 10
7080.735
 20
-10971.765
 30
-1554.333
 70
    32
  0
VERTEX
  8
T68SSILL
 62
2
 10
7068.521
 20
-10937.516
 30
-1554.403
 70
    32
  0
VERTEX
  8
T68SSILL
 62
2
 10
7060.579
 20
-10939.855
 30
-1554.520
 70
    32
  0
VERTEX
  8
T68SSILL
 62
2
 10
7058.094
 20
-10928.936
 30
-1554.523
 70
    32
  0
VERTEX
  8
T68SSILL
 62
2
 10
7067.023
 20
-10926.296
 30
-1554.391
 70
    32
  0
VERTEX
  8
T68SSILL
 62
2
 10
7071.624
 20
-10917.320
 30
-1554.300
 70
    32
  0
VERTEX
  8
T68SSILL
 62
2
 10
7062.563
 20
-10903.522
 30
-1554.386
 70
    32
  0
VERTEX
  8
T68SSILL
 62
2
 10
7054.634
 20
-10903.535
 30
-1554.496
 70
    32
  0
VERTEX
  8
T68SSILL
 62
2
 10
7045.432
 20
-10889.843
 30
-1554.584
 70
    32
  0
VERTEX
  8
T68SSILL
 62
2
 10
7033.924
 20
-10877.336
 30
-1554.708
 70
    32
  0
VERTEX
  8
T68SSILL
 62
2
 10
7033.974
 20
-10864.950
 30
-1554.671
 70
    32
  0
VERTEX
  8
T68SSILL
 62
2
 10
6994.900
 20
-10809.834
 30
-1555.053
 70
    32
  0
VERTEX
  8
T68SSILL
 62
2
 10
6999.882
 20
-10803.594
 30
-1554.965
 70
    32
  0
VERTEX
  8
T68SSILL
 62
2
 10
7017.193
 20
-10798.028
 30
-1554.797
 70
    32
  0
VERTEX
  8
T68SSILL
 62
2
 10
7021.228
 20
-10792.202
 30
-1554.820
 70
    32
  0
VERTEX
  8
T68SSILL
 62
2
 10
7051.803
 20
-10785.625
 30
-1554.751
 70
    32
  0
VERTEX
  8
T68SSILL
 62
2
 10
7057.552
 20
-10780.127
 30
-1554.751
 70
    32
  0
VERTEX
  8
T68SSILL
 62
2
 10
7056.024
 20
-10769.555
 30
-1554.786
 70
    32
  0
VERTEX
  8
T68SSILL
 62
2
 10
7057.664
 20
-10754.705
 30
-1554.826
 70
    32
  0
VERTEX
  8
T68SSILL
 62
2
 10
7054.341
 20
-10712.444
 30
-1554.960
 70
    32
  0
VERTEX
  8
T68SSILL
 62
2
 10
7072.275
 20
-10681.109
 30
-1555.001
 70
    32
  0
VERTEX
  8
T68SSILL
 62
2
 10
7085.347
 20
-10680.441
 30
-1554.966
 70
    32
  0
VERTEX
  8
T68SSILL
 62
2
 10
7080.341
 20
-10699.279
 30
-1554.924
 70
    32
  0
VERTEX
  8
T68SSILL
 62
2
 10
7082.876
 20
-10716.516
 30
-1554.866
 70
    32
  0
VERTEX
  8
T68SSILL
 62
2
 10
7075.178
 20
-10728.873
 30
-1554.852
 70
    32
  0
VERTEX
  8
T68SSILL
 62
2
 10
7079.548
 20
-10752.426
 30
-1554.769
 70
    32
  0
VERTEX
  8
T68SSILL
 62
2
 10
7084.419
 20
-10750.187
 30
-1554.762
 70
    32
  0
VERTEX
  8
T68SSILL
 62
2
 10
7092.948
 20
-10756.009
 30
-1554.720
 70
    32
  0
VERTEX
  8
T68SSILL
 62
2
 10
7073.255
 20
-10796.525
 30
-1554.657
 70
    32
  0
VERTEX
  8
T68SSILL
 62
2
 10
7081.640
 20
-10808.728
 30
-1554.596
 70
    32
  0
VERTEX
  8
T68SSILL
 62
2
 10
7087.945
 20
-10808.604
 30
-1554.579
 70
    32
  0
VERTEX
  8
T68SSILL
 62
2
 10
7113.081
 20
-10791.339
 30
-1554.557
 70
    32
  0
VERTEX
  8
T68SSILL
 62
2
 10
7110.650
 20
-10780.848
 30
-1554.595
 70
    32
  0
VERTEX
  8
T68SSILL
 62
2
 10
7112.194
 20
-10763.187
 30
-1554.643
 70
    32
  0
VERTEX
  8
T68SSILL
 62
2
 10
7104.565
 20
-10744.720
 30
-1554.720
 70
    32
  0
VERTEX
  8
T68SSILL
 62
2
 10
7108.142
 20
-10739.631
 30
-1554.724
 70
    32
  0
VERTEX
  8
T68SSILL
 62
2
 10
7101.708
 20
-10723.868
 30
-1554.790
 70
    32
  0
VERTEX
  8
T68SSILL
 62
2
 10
7110.684
 20
-10715.436
 30
-1554.789
 70
    32
  0
VERTEX
  8
T68SSILL
 62
2
 10
7127.648
 20
-10748.763
 30
-1554.641
 70
    32
  0
VERTEX
  8
T68SSILL
 62
2
 10
7134.578
 20
-10756.309
 30
-1554.599
 70
    32
  0
VERTEX
  8
T68SSILL
 62
2
 10
7148.759
 20
-10762.770
 30
-1554.538
 70
    32
  0
VERTEX
  8
T68SSILL
 62
2
 10
7160.238
 20
-10752.533
 30
-1554.535
 70
    32
  0
VERTEX
  8
T68SSILL
 62
2
 10
7172.540
 20
-10762.505
 30
-1554.470
 70
    32
  0
VERTEX
  8
T68SSILL
 62
2
 10
7181.253
 20
-10760.748
 30
-1554.450
 70
    32
  0
VERTEX
  8
T68SSILL
 62
2
 10
7184.802
 20
-10767.392
 30
-1554.420
 70
    32
  0
VERTEX
  8
T68SSILL
 62
2
 10
7175.336
 20
-10775.731
 30
-1554.423
 70
    32
  0
VERTEX
  8
T68SSILL
 62
2
 10
7177.036
 20
-10783.417
 30
-1554.395
 70
    32
  0
VERTEX
  8
T68SSILL
 62
2
 10
7159.374
 20
-10790.819
 30
-1554.425
 70
    32
  0
VERTEX
  8
T68SSILL
 62
2
 10
7146.635
 20
-10790.408
 30
-1554.463
 70
    32
  0
VERTEX
  8
T68SSILL
 62
2
 10
7106.359
 20
-10809.531
 30
-1554.523
 70
    32
  0
VERTEX
  8
T68SSILL
 62
2
 10
7087.516
 20
-10822.100
 30
-1554.540
 70
    32
  0
VERTEX
  8
T68SSILL
 62
2
 10
7080.524
 20
-10837.067
 30
-1554.516
 70
    32
  0
VERTEX
  8
T68SSILL
 62
2
 10
7090.698
 20
-10849.867
 30
-1554.448
 70
    32
  0
VERTEX
  8
T68SSILL
 62
2
 10
7090.689
 20
-10860.843
 30
-1554.416
 70
    32
  0
VERTEX
  8
T68SSILL
 62
2
 10
7099.034
 20
-10880.208
 30
-1554.334
 70
    32
  0
VERTEX
  8
T68SSILL
 62
2
 10
7103.900
 20
-10910.773
 30
-1554.230
 70
    32
  0
VERTEX
  8
T68SSILL
 62
2
 10
7114.985
 20
-10933.392
 30
-1554.131
 70
    32
  0
VERTEX
  8
T68SSILL
 62
2
 10
7119.135
 20
-10963.058
 30
-1554.049
 70
    32
  0
VERTEX
  8
T68SSILL
 62
2
 10
7114.454
 20
-10967.617
 30
-1554.046
 70
    32
  0
VERTEX
  8
T68SSILL
 62
2
 10
7105.720
 20
-10954.586
 30
-1554.095
 70
    32
  0
VERTEX
  8
T68SSILL
 62
2
 10
7099.815
 20
-10958.911
 30
-1554.099
 70
    32
  0
VERTEX
  8
T68SSILL
 62
2
 10
7105.585
 20
-10971.184
 30
-1554.050
 70
    32
  0
VERTEX
  8
T68SSILL
 62
2
 10
7105.456
 20
-10982.454
 30
-1554.029
 70
    32
  0
VERTEX
  8
T68SSILL
 62
2
 10
7101.033
 20
-11009.843
 30
-1554.059
 70
    32
  0
VERTEX
  8
T68SSILL
 62
2
 10
7099.636
 20
-11036.669
 30
-1554.085
 70
    32
  0
VERTEX
  8
T68SSILL
 62
2
 10
7100.979
 20
-11045.556
 30
-1554.060
 70
    32
  0
VERTEX
  8
T68SSILL
 62
2
 10
7097.127
 20
-11080.224
 30
-1554.133
 70
    32
  0
VERTEX
  8
T68SSILL
 62
2
 10
7087.425
 20
-11080.522
 30
-1554.297
 70
    32
  0
VERTEX
  8
T68SSILL
 62
2
 10
7089.142
 20
-11017.589
 30
-1554.281
 70
    32
  0
VERTEX
  8
T68SSILL
 62
2
 10
7080.605
 20
-11016.761
 30
-1554.441
 70
    32
  0
VERTEX
  8
T68SSILL
 62
2
 10
7048.413
 20
-11064.701
 30
-1554.377
 70
    32
  0
VERTEX
  8
T68SSILL
 62
2
 10
7049.172
 20
-11072.925
 30
-1554.357
 70
    32
  0
VERTEX
  8
T68SSILL
 62
2
 10
7062.017
 20
-11090.119
 30
-1554.303
 70
    32
  0
VERTEX
  8
T68SSILL
 62
2
 10
7063.192
 20
-11098.736
 30
-1554.281
 70
    32
  0
VERTEX
  8
T68SSILL
 62
2
 10
7074.640
 20
-11117.137
 30
-1554.226
 70
    32
  0
VERTEX
  8
T68SSILL
 62
2
 10
7074.943
 20
-11124.224
 30
-1554.209
 70
    32
  0
VERTEX
  8
T68SSILL
 62
2
 10
7065.359
 20
-11128.878
 30
-1554.208
 70
    32
  0
VERTEX
  8
T68SSILL
 62
2
 10
7046.674
 20
-11133.116
 30
-1554.219
 70
    32
  0
VERTEX
  8
T68SSILL
 62
2
 10
7036.736
 20
-11120.624
 30
-1554.259
 70
    32
  0
VERTEX
  8
T68SSILL
 62
2
 10
7034.746
 20
-11109.042
 30
-1554.289
 70
    32
  0
VERTEX
  8
T68SSILL
 62
2
 10
7042.384
 20
-11088.480
 30
-1554.328
 70
    32
  0
VERTEX
  8
T68SSILL
 62
2
 10
7036.408
 20
-11082.579
 30
-1554.348
 70
    32
  0
VERTEX
  8
T68SSILL
 62
2
 10
7009.242
 20
-11123.033
 30
-1554.399
 70
    32
  0
VERTEX
  8
T68SSILL
 62
2
 10
7014.847
 20
-11135.022
 30
-1554.343
 70
    32
  0
VERTEX
  8
T68SSILL
 62
2
 10
7005.861
 20
-11143.038
 30
-1554.404
 70
    32
  0
VERTEX
  8
T68SSILL
 62
2
 10
7001.666
 20
-11153.237
 30
-1554.426
 70
    32
  0
VERTEX
  8
T68SSILL
 62
2
 10
6993.507
 20
-11159.671
 30
-1554.482
 70
    32
  0
VERTEX
  8
T68SSILL
 62
2
 10
6985.292
 20
-11158.273
 30
-1554.547
 70
    32
  0
VERTEX
  8
T68SSILL
 62
2
 10
6954.489
 20
-11204.380
 30
-1554.663
 70
    32
  0
VERTEX
  8
T68SSILL
 62
2
 10
6685.814
 20
-11396.994
 30
-1553.934
 70
    32
  0
VERTEX
  8
T68SSILL
 62
2
 10
6683.963
 20
-11406.394
 30
-1553.893
 70
    32
  0
VERTEX
  8
T68SSILL
 62
2
 10
6679.755
 20
-11414.446
 30
-1553.854
 70
    32
  0
VERTEX
  8
T68SSILL
 62
2
 10
6678.436
 20
-11423.683
 30
-1553.815
 70
    32
  0
VERTEX
  8
T68SSILL
 62
2
 10
6683.342
 20
-11445.649
 30
-1553.734
 70
    32
  0
VERTEX
  8
T68SSILL
 62
2
 10
7238.871
 20
-12219.884
 30
-1551.473
 70
    32
  0
VERTEX
  8
T68SSILL
 62
2
 10
7245.854
 20
-12215.278
 30
-1551.469
 70
    32
  0
VERTEX
  8
T68SSILL
 62
2
 10
7251.171
 20
-12217.082
 30
-1551.478
 70
    32
  0
VERTEX
  8
T68SSILL
 62
2
 10
7258.838
 20
-12214.476
 30
-1551.497
 70
    32
  0
VERTEX
  8
T68SSILL
 62
2
 10
7261.139
 20
-12236.903
 30
-1551.475
 70
    32
  0
VERTEX
  8
T68SSILL
 62
2
 10
7232.420
 20
-12259.045
 30
-1551.412
 70
    32
  0
VERTEX
  8
T68SSILL
 62
2
 10
7223.090
 20
-12272.724
 30
-1551.392
 70
    32
  0
VERTEX
  8
T68SSILL
 62
2
 10
7217.489
 20
-12283.603
 30
-1551.378
 70
    32
  0
VERTEX
  8
T68SSILL
 62
2
 10
7212.705
 20
-12275.773
 30
-1551.378
 70
    32
  0
VERTEX
  8
T68SSILL
 62
2
 10
7205.194
 20
-12270.779
 30
-1551.372
 70
    32
  0
VERTEX
  8
T68SSILL
 62
2
 10
7204.272
 20
-12264.392
 30
-1551.375
 70
    32
  0
VERTEX
  8
T68SSILL
 62
2
 10
7201.250
 20
-12259.304
 30
-1551.375
 70
    32
  0
VERTEX
  8
T68SSILL
 62
2
 10
7208.245
 20
-12251.107
 30
-1551.389
 70
    32
  0
VERTEX
  8
T68SSILL
 62
2
 10
7205.881
 20
-12244.676
 30
-1551.390
 70
    32
  0
VERTEX
  8
T68SSILL
 62
2
 10
7219.307
 20
-12234.116
 30
-1551.413
 70
    32
  0
VERTEX
  8
T68SSILL
 62
2
 10
7224.650
 20
-12226.787
 30
-1551.424
 70
    32
  0
VERTEX
  8
T68SSILL
 62
2
 10
7222.773
 20
-12221.632
 30
-1551.433
 70
    32
  0
VERTEX
  8
T68SSILL
 62
2
 10
7225.029
 20
-12214.687
 30
-1551.484
 70
    32
  0
VERTEX
  8
T68SSILL
 62
2
 10
7213.423
 20
-12198.760
 30
-1551.530
 70
    32
  0
VERTEX
  8
T68SSILL
 62
2
 10
7208.216
 20
-12202.519
 30
-1551.502
 70
    32
  0
VERTEX
  8
T68SSILL
 62
2
 10
7201.542
 20
-12193.123
 30
-1551.534
 70
    32
  0
VERTEX
  8
T68SSILL
 62
2
 10
7206.606
 20
-12189.467
 30
-1551.557
 70
    32
  0
VERTEX
  8
T68SSILL
 62
2
 10
7085.329
 20
-12021.167
 30
-1552.045
 70
    32
  0
VERTEX
  8
T68SSILL
 62
2
 10
7075.991
 20
-12020.856
 30
-1552.032
 70
    32
  0
VERTEX
  8
T68SSILL
 62
2
 10
7063.133
 20
-12004.097
 30
-1552.079
 70
    32
  0
VERTEX
  8
T68SSILL
 62
2
 10
7065.917
 20
-11994.276
 30
-1552.123
 70
    32
  0
VERTEX
  8
T68SSILL
 62
2
 10
6675.181
 20
-11449.496
 30
-1553.706
 70
    32
  0
VERTEX
  8
T68SSILL
 62
2
 10
6671.413
 20
-11448.288
 30
-1553.705
 70
    32
  0
VERTEX
  8
T68SSILL
 62
2
 10
6656.801
 20
-11470.403
 30
-1553.594
 70
    32
  0
VERTEX
  8
T68SSILL
 62
2
 10
6652.774
 20
-11470.349
 30
-1553.588
 70
    32
  0
VERTEX
  8
T68SSILL
 62
2
 10
6634.173
 20
-11486.992
 30
-1553.492
 70
    32
  0
VERTEX
  8
T68SSILL
 62
2
 10
6629.456
 20
-11488.398
 30
-1553.479
 70
    32
  0
VERTEX
  8
T68SSILL
 62
2
 10
6626.226
 20
-11488.101
 30
-1553.475
 70
    32
  0
VERTEX
  8
T68SSILL
 62
2
 10
6621.283
 20
-11483.412
 30
-1553.486
 70
    32
  0
VERTEX
  8
T68SSILL
 62
2
 10
6624.336
 20
-11478.443
 30
-1553.511
 70
    32
  0
VERTEX
  8
T68SSILL
 62
2
 10
6623.292
 20
-11472.715
 30
-1553.532
 70
    32
  0
VERTEX
  8
T68SSILL
 62
2
 10
6620.341
 20
-11468.554
 30
-1553.544
 70
    32
  0
VERTEX
  8
T68SSILL
 62
2
 10
6616.094
 20
-11466.823
 30
-1553.545
 70
    32
  0
VERTEX
  8
T68SSILL
 62
2
 10
6599.953
 20
-11466.411
 30
-1553.521
 70
    32
  0
VERTEX
  8
T68SSILL
 62
2
 10
6588.195
 20
-11460.627
 30
-1553.526
 70
    32
  0
VERTEX
  8
T68SSILL
 62
2
 10
6582.725
 20
-11454.587
 30
-1553.542
 70
    32
  0
VERTEX
  8
T68SSILL
 62
2
 10
6589.674
 20
-11445.992
 30
-1553.587
 70
    32
  0
VERTEX
  8
T68SSILL
 62
2
 10
6587.275
 20
-11429.688
 30
-1553.649
 70
    32
  0
VERTEX
  8
T68SSILL
 62
2
 10
6594.400
 20
-11423.772
 30
-1553.684
 70
    32
  0
VERTEX
  8
T68SSILL
 62
2
 10
6598.270
 20
-11425.124
 30
-1553.685
 70
    32
  0
VERTEX
  8
T68SSILL
 62
2
 10
6603.809
 20
-11441.142
 30
-1553.629
 70
    32
  0
VERTEX
  8
T68SSILL
 62
2
 10
6613.853
 20
-11445.878
 30
-1553.625
 70
    32
  0
VERTEX
  8
T68SSILL
 62
2
 10
6619.160
 20
-11454.729
 30
-1553.598
 70
    32
  0
VERTEX
  8
T68SSILL
 62
2
 10
6636.788
 20
-11450.851
 30
-1553.641
 70
    32
  0
VERTEX
  8
T68SSILL
 62
2
 10
6651.702
 20
-11435.852
 30
-1553.725
 70
    32
  0
VERTEX
  8
T68SSILL
 62
2
 10
6656.629
 20
-11423.948
 30
-1553.780
 70
    32
  0
VERTEX
  8
T68SSILL
 62
2
 10
6503.742
 20
-11210.979
 30
-1554.399
 70
    32
  0
VERTEX
  8
T68SSILL
 62
2
 10
6494.168
 20
-11212.378
 30
-1554.378
 70
    32
  0
VERTEX
  8
T68SSILL
 62
2
 10
6481.566
 20
-11205.252
 30
-1554.387
 70
    32
  0
VERTEX
  8
T68SSILL
 62
2
 10
6480.934
 20
-11198.584
 30
-1554.413
 70
    32
  0
VERTEX
  8
T68SSILL
 62
2
 10
6484.211
 20
-11193.780
 30
-1554.438
 70
    32
  0
VERTEX
  8
T68SSILL
 62
2
 10
6489.140
 20
-11190.392
 30
-1554.459
 70
    32
  0
VERTEX
  8
T68SSILL
 62
2
 10
6486.006
 20
-11185.822
 30
-1554.472
 70
    32
  0
VERTEX
  8
T68SSILL
 62
2
 10
6479.529
 20
-11190.523
 30
-1554.444
 70
    32
  0
VERTEX
  8
T68SSILL
 62
2
 10
6475.112
 20
-11184.599
 30
-1554.460
 70
    32
  0
VERTEX
  8
T68SSILL
 62
2
 10
6481.610
 20
-11179.775
 30
-1554.490
 70
    32
  0
VERTEX
  8
T68SSILL
 62
2
 10
6430.792
 20
-11108.432
 30
-1554.698
 70
    32
  0
VERTEX
  8
T68SSILL
 62
2
 10
6423.639
 20
-11113.397
 30
-1554.667
 70
    32
  0
VERTEX
  8
T68SSILL
 62
2
 10
6419.192
 20
-11107.279
 30
-1554.684
 70
    32
  0
VERTEX
  8
T68SSILL
 62
2
 10
6426.476
 20
-11102.651
 30
-1554.714
 70
    32
  0
VERTEX
  8
T68SSILL
 62
2
 10
6154.839
 20
-10725.602
 30
-1555.753
 70
    32
  0
VERTEX
  8
T68SSILL
 62
2
 10
6133.821
 20
-10740.509
 30
-1555.676
 70
    32
  0
VERTEX
  8
T68SSILL
 62
2
 10
6129.305
 20
-10733.685
 30
-1555.694
 70
    32
  0
VERTEX
  8
T68SSILL
 62
2
 10
6150.403
 20
-10719.044
 30
-1555.770
 70
    32
  0
VERTEX
  8
T68SSILL
 62
2
 10
5932.631
 20
-10416.744
 30
-1556.545
 70
    32
  0
VERTEX
  8
T68SSILL
 62
2
 10
5893.564
 20
-10444.633
 30
-1556.401
 70
    32
  0
VERTEX
  8
T68SSILL
 62
2
 10
5893.796
 20
-10453.594
 30
-1556.370
 70
    32
  0
VERTEX
  8
T68SSILL
 62
2
 10
5912.621
 20
-10477.330
 30
-1556.312
 70
    32
  0
VERTEX
  8
T68SSILL
 62
2
 10
5930.860
 20
-10492.274
 30
-1556.283
 70
    32
  0
VERTEX
  8
T68SSILL
 62
2
 10
5921.025
 20
-10498.488
 30
-1556.249
 70
    32
  0
VERTEX
  8
T68SSILL
 62
2
 10
5911.519
 20
-10499.587
 30
-1556.234
 70
    32
  0
VERTEX
  8
T68SSILL
 62
2
 10
5893.259
 20
-10492.897
 30
-1556.234
 70
    32
  0
VERTEX
  8
T68SSILL
 62
2
 10
5853.066
 20
-10473.055
 30
-1556.253
 70
    32
  0
VERTEX
  8
T68SSILL
 62
2
 10
5786.283
 20
-10520.922
 30
-1556.006
 70
    32
  0
VERTEX
  8
T68SSILL
 62
2
 10
5782.548
 20
-10514.831
 30
-1556.023
 70
    32
  0
VERTEX
  8
T68SSILL
 62
2
 10
5849.873
 20
-10467.116
 30
-1556.270
 70
    32
  0
VERTEX
  8
T68SSILL
 62
2
 10
5847.589
 20
-10449.790
 30
-1556.327
 70
    32
  0
VERTEX
  8
T68SSILL
 62
2
 10
5851.090
 20
-10439.898
 30
-1556.365
 70
    32
  0
VERTEX
  8
T68SSILL
 62
2
 10
5850.036
 20
-10434.370
 30
-1556.383
 70
    32
  0
VERTEX
  8
T68SSILL
 62
2
 10
5853.614
 20
-10431.360
 30
-1556.398
 70
    32
  0
VERTEX
  8
T68SSILL
 62
2
 10
5862.450
 20
-10428.576
 30
-1556.418
 70
    32
  0
VERTEX
  8
T68SSILL
 62
2
 10
5869.138
 20
-10420.400
 30
-1556.455
 70
    32
  0
VERTEX
  8
T68SSILL
 62
2
 10
5872.447
 20
-10419.426
 30
-1556.462
 70
    32
  0
VERTEX
  8
T68SSILL
 62
2
 10
5876.985
 20
-10421.362
 30
-1556.461
 70
    32
  0
VERTEX
  8
T68SSILL
 62
2
 10
5881.111
 20
-10430.857
 30
-1556.433
 70
    32
  0
VERTEX
  8
T68SSILL
 62
2
 10
5890.159
 20
-10438.932
 30
-1556.417
 70
    32
  0
VERTEX
  8
T68SSILL
 62
2
 10
5928.590
 20
-10410.982
 30
-1556.560
 70
    32
  0
VERTEX
  8
T68SSILL
 62
2
 10
5830.463
 20
-10274.695
 30
-1556.910
 70
    32
  0
VERTEX
  8
T68SSILL
 62
2
 10
5822.499
 20
-10272.516
 30
-1556.907
 70
    32
  0
VERTEX
  8
T68SSILL
 62
2
 10
5807.966
 20
-10253.386
 30
-1556.956
 70
    32
  0
VERTEX
  8
T68SSILL
 62
2
 10
5812.972
 20
-10249.348
 30
-1556.976
 70
    32
  0
VERTEX
  8
T68SSILL
 62
2
 10
5757.605
 20
-10172.254
 30
-1557.174
 70
    32
  0
VERTEX
  8
T68SSILL
 62
2
 10
5751.930
 20
-10172.941
 30
-1557.164
 70
    32
  0
VERTEX
  8
T68SSILL
 62
2
 10
5749.841
 20
-10174.860
 30
-1557.155
 70
    32
  0
VERTEX
  8
T68SSILL
 62
2
 10
5743.890
 20
-10168.624
 30
-1557.169
 70
    32
  0
VERTEX
  8
T68SSILL
 62
2
 10
5740.170
 20
-10160.367
 30
-1557.193
 70
    32
  0
VERTEX
  8
T68SSILL
 62
2
 10
5744.817
 20
-10154.448
 30
-1557.219
 70
    32
  0
VERTEX
  8
T68SSILL
 62
2
 10
5727.171
 20
-10129.879
 30
-1557.282
 70
    32
  0
VERTEX
  8
T68SSILL
 62
2
 10
5716.602
 20
-10123.179
 30
-1557.292
 70
    32
  0
VERTEX
  8
T68SSILL
 62
2
 10
5640.556
 20
-10103.678
 30
-1557.266
 70
    32
  0
VERTEX
  8
T68SSILL
 62
2
 10
5232.456
 20
-10396.101
 30
-1555.553
 70
    32
  0
VERTEX
  8
T68SSILL
 62
2
 10
5228.012
 20
-10389.327
 30
-1555.580
 70
    32
  0
VERTEX
  8
T68SSILL
 62
2
 10
5245.757
 20
-10376.334
 30
-1555.738
 70
    32
  0
VERTEX
  8
T68SSILL
 62
2
 10
5229.297
 20
-10374.852
 30
-1555.682
 70
    32
  0
VERTEX
  8
T68SSILL
 62
2
 10
5219.539
 20
-10371.688
 30
-1555.663
 70
    32
  0
VERTEX
  8
T68SSILL
 62
2
 10
5209.841
 20
-10365.445
 30
-1555.666
 70
    32
  0
VERTEX
  8
T68SSILL
 62
2
 10
5201.175
 20
-10355.967
 30
-1555.694
 70
    32
  0
VERTEX
  8
T68SSILL
 62
2
 10
5146.149
 20
-10280.898
 30
-1555.971
 70
    32
  0
VERTEX
  8
T68SSILL
 62
2
 10
5136.031
 20
-10288.074
 30
-1555.883
 70
    32
  0
VERTEX
  8
T68SSILL
 62
2
 10
5131.693
 20
-10282.200
 30
-1555.904
 70
    32
  0
VERTEX
  8
T68SSILL
 62
2
 10
5141.780
 20
-10274.829
 30
-1555.994
 70
    32
  0
VERTEX
  8
T68SSILL
 62
2
 10
5090.532
 20
-10203.652
 30
-1556.074
 70
    32
  0
VERTEX
  8
T68SSILL
 62
2
 10
5082.345
 20
-10210.197
 30
-1556.051
 70
    32
  0
VERTEX
  8
T68SSILL
 62
2
 10
5077.750
 20
-10203.966
 30
-1556.026
 70
    32
  0
VERTEX
  8
T68SSILL
 62
2
 10
5086.305
 20
-10197.481
 30
-1556.051
 70
    32
  0
VERTEX
  8
T68SSILL
 62
2
 10
5033.679
 20
-10124.801
 30
-1555.766
 70
    32
  0
VERTEX
  8
T68SSILL
 62
2
 10
5025.462
 20
-10129.699
 30
-1555.741
 70
    32
  0
VERTEX
  8
T68SSILL
 62
2
 10
5021.537
 20
-10123.752
 30
-1555.719
 70
    32
  0
VERTEX
  8
T68SSILL
 62
2
 10
5029.446
 20
-10117.886
 30
-1555.742
 70
    32
  0
VERTEX
  8
T68SSILL
 62
2
 10
4979.134
 20
-10048.477
 30
-1555.470
 70
    32
  0
VERTEX
  8
T68SSILL
 62
2
 10
4969.522
 20
-10054.721
 30
-1555.441
 70
    32
  0
VERTEX
  8
T68SSILL
 62
2
 10
4965.486
 20
-10049.070
 30
-1555.419
 70
    32
  0
VERTEX
  8
T68SSILL
 62
2
 10
4974.470
 20
-10042.044
 30
-1555.445
 70
    32
  0
VERTEX
  8
T68SSILL
 62
2
 10
4924.925
 20
-9973.693
 30
-1555.177
 70
    32
  0
VERTEX
  8
T68SSILL
 62
2
 10
4914.860
 20
-9980.774
 30
-1555.147
 70
    32
  0
VERTEX
  8
T68SSILL
 62
2
 10
4907.932
 20
-9970.924
 30
-1555.109
 70
    32
  0
VERTEX
  8
T68SSILL
 62
2
 10
4917.751
 20
-9963.802
 30
-1555.138
 70
    32
  0
VERTEX
  8
T68SSILL
 62
2
 10
4812.862
 20
-9818.034
 30
-1554.569
 70
    32
  0
VERTEX
  8
T68SSILL
 62
2
 10
4806.516
 20
-9814.142
 30
-1554.541
 70
    32
  0
VERTEX
  8
T68SSILL
 62
2
 10
4802.704
 20
-9807.899
 30
-1554.519
 70
    32
  0
VERTEX
  8
T68SSILL
 62
2
 10
4801.876
 20
-9802.657
 30
-1554.510
 70
    32
  0
VERTEX
  8
T68SSILL
 62
2
 10
4674.903
 20
-9624.918
 30
-1553.899
 70
    32
  0
VERTEX
  8
T68SSILL
 62
2
 10
4654.466
 20
-9604.626
 30
-1553.823
 70
    32
  0
VERTEX
  8
T68SSILL
 62
2
 10
4644.104
 20
-9598.740
 30
-1553.767
 70
    32
  0
VERTEX
  8
T68SSILL
 62
2
 10
4627.765
 20
-9591.292
 30
-1553.631
 70
    32
  0
VERTEX
  8
T68SSILL
 62
2
 10
4604.773
 20
-9586.328
 30
-1553.485
 70
    32
  0
VERTEX
  8
T68SSILL
 62
2
 10
4590.703
 20
-9586.441
 30
-1553.431
 70
    32
  0
VERTEX
  8
T68SSILL
 62
2
 10
4568.049
 20
-9590.417
 30
-1553.351
 70
    32
  0
VERTEX
  8
T68SSILL
 62
2
 10
4292.044
 20
-9676.436
 30
-1552.419
 70
    32
  0
VERTEX
  8
T68SSILL
 62
2
 10
4268.242
 20
-9701.928
 30
-1552.363
 70
    32
  0
VERTEX
  8
T68SSILL
 62
2
 10
4243.008
 20
-9710.771
 30
-1552.279
 70
    32
  0
VERTEX
  8
T68SSILL
 62
2
 10
4219.296
 20
-9716.213
 30
-1552.197
 70
    32
  0
VERTEX
  8
T68SSILL
 62
2
 10
4199.303
 20
-9714.974
 30
-1552.119
 70
    32
  0
VERTEX
  8
T68SSILL
 62
2
 10
4187.343
 20
-9707.856
 30
-1552.063
 70
    32
  0
VERTEX
  8
T68SSILL
 62
2
 10
3490.001
 20
-9923.595
 30
-1549.689
 70
    32
  0
VERTEX
  8
T68SSILL
 62
2
 10
3488.218
 20
-9925.661
 30
-1549.685
 70
    32
  0
VERTEX
  8
T68SSILL
 62
2
 10
3307.728
 20
-9980.579
 30
-1549.103
 70
    32
  0
VERTEX
  8
T68SSILL
 62
2
 10
3305.283
 20
-9979.799
 30
-1549.092
 70
    32
  0
VERTEX
  8
T68SSILL
 62
2
 10
3054.906
 20
-10056.388
 30
-1548.453
 70
    32
  0
VERTEX
  8
T68SSILL
 62
2
 10
3053.135
 20
-10050.044
 30
-1548.427
 70
    32
  0
VERTEX
  8
T68SSILL
 62
2
 10
3083.118
 20
-10040.356
 30
-1548.502
 70
    32
  0
VERTEX
  8
T68SSILL
 62
2
 10
3056.972
 20
-10034.136
 30
-1548.391
 70
    32
  0
VERTEX
  8
T68SSILL
 62
2
 10
3039.101
 20
-10026.638
 30
-1548.306
 70
    32
  0
VERTEX
  8
T68SSILL
 62
2
 10
3027.789
 20
-10019.245
 30
-1548.243
 70
    32
  0
VERTEX
  8
T68SSILL
 62
2
 10
3015.197
 20
-10008.256
 30
-1548.165
 70
    32
  0
VERTEX
  8
T68SSILL
 62
2
 10
2995.316
 20
-9980.327
 30
-1548.009
 70
    32
  0
VERTEX
  8
T68SSILL
 62
2
 10
2989.674
 20
-9984.065
 30
-1548.001
 70
    32
  0
VERTEX
  8
T68SSILL
 62
2
 10
2985.622
 20
-9978.743
 30
-1547.970
 70
    32
  0
VERTEX
  8
T68SSILL
 62
2
 10
2991.066
 20
-9974.714
 30
-1547.977
 70
    32
  0
VERTEX
  8
T68SSILL
 62
2
 10
2762.849
 20
-9655.692
 30
-1546.569
 70
    32
  0
VERTEX
  8
T68SSILL
 62
2
 10
2761.510
 20
-9654.047
 30
-1546.562
 70
    32
  0
VERTEX
  8
T68SSILL
 62
2
 10
2752.702
 20
-9660.474
 30
-1546.562
 70
    32
  0
VERTEX
  8
T68SSILL
 62
2
 10
2748.575
 20
-9654.885
 30
-1546.539
 70
    32
  0
VERTEX
  8
T68SSILL
 62
2
 10
2757.735
 20
-9648.542
 30
-1546.539
 70
    32
  0
VERTEX
  8
T68SSILL
 62
2
 10
2670.936
 20
-9527.206
 30
-1546.039
 70
    32
  0
VERTEX
  8
T68SSILL
 62
2
 10
2610.375
 20
-9516.678
 30
-1545.892
 70
    32
  0
VERTEX
  8
T68SSILL
 62
2
 10
2498.093
 20
-9595.844
 30
-1545.890
 70
    32
  0
VERTEX
  8
T68SSILL
 62
2
 10
2504.041
 20
-9605.510
 30
-1545.928
 70
    32
  0
VERTEX
  8
T68SSILL
 62
2
 10
2500.730
 20
-9608.298
 30
-1545.929
 70
    32
  0
VERTEX
  8
T68SSILL
 62
2
 10
2501.779
 20
-9610.774
 30
-1545.938
 70
    32
  0
VERTEX
  8
T68SSILL
 62
2
 10
2495.364
 20
-9615.251
 30
-1545.937
 70
    32
  0
VERTEX
  8
T68SSILL
 62
2
 10
2493.295
 20
-9613.151
 30
-1545.928
 70
    32
  0
VERTEX
  8
T68SSILL
 62
2
 10
2483.602
 20
-9621.244
 30
-1545.927
 70
    32
  0
VERTEX
  8
T68SSILL
 62
2
 10
2476.506
 20
-9611.297
 30
-1545.890
 70
    32
  0
VERTEX
  8
T68SSILL
 62
2
 10
2448.649
 20
-9631.129
 30
-1545.865
 70
    32
  0
VERTEX
  8
T68SSILL
 62
2
 10
2445.386
 20
-9624.312
 30
-1545.844
 70
    32
  0
VERTEX
  8
T68SSILL
 62
2
 10
2608.915
 20
-9509.697
 30
-1545.870
 70
    32
  0
VERTEX
  8
T68SSILL
 62
2
 10
2664.852
 20
-9518.589
 30
-1546.003
 70
    32
  0
VERTEX
  8
T68SSILL
 62
2
 10
2645.340
 20
-9491.046
 30
-1545.890
 70
    32
  0
VERTEX
  8
T68SSILL
 62
2
 10
2637.404
 20
-9496.879
 30
-1545.890
 70
    32
  0
VERTEX
  8
T68SSILL
 62
2
 10
2633.616
 20
-9491.165
 30
-1545.867
 70
    32
  0
VERTEX
  8
T68SSILL
 62
2
 10
2641.364
 20
-9485.992
 30
-1545.868
 70
    32
  0
VERTEX
  8
T68SSILL
 62
2
 10
2297.335
 20
-9002.716
 30
-1544.596
 70
    32
  0
VERTEX
  8
T68SSILL
 62
2
 10
2290.745
 20
-9006.649
 30
-1544.595
 70
    32
  0
VERTEX
  8
T68SSILL
 62
2
 10
2287.249
 20
-9001.583
 30
-1544.583
 70
    32
  0
VERTEX
  8
T68SSILL
 62
2
 10
2294.014
 20
-8996.986
 30
-1544.584
 70
    32
  0
VERTEX
  8
T68SSILL
 62
2
 10
2181.902
 20
-8841.072
 30
-1544.213
 70
    32
  0
VERTEX
  8
T68SSILL
 62
2
 10
2173.542
 20
-8846.157
 30
-1544.212
 70
    32
  0
VERTEX
  8
T68SSILL
 62
2
 10
2169.751
 20
-8840.222
 30
-1544.198
 70
    32
  0
VERTEX
  8
T68SSILL
 62
2
 10
2176.855
 20
-8834.736
 30
-1544.197
 70
    32
  0
VERTEX
  8
T68SSILL
 62
2
 10
2098.092
 20
-8724.483
 30
-1543.572
 70
    32
  0
VERTEX
  8
T68SSILL
 62
2
 10
2080.574
 20
-8739.751
 30
-1543.667
 70
    32
  0
VERTEX
  8
T68SSILL
 62
2
 10
2073.325
 20
-8735.629
 30
-1543.535
 70
    32
  0
VERTEX
  8
T68SSILL
 62
2
 10
2082.639
 20
-8717.779
 30
-1543.326
 70
    32
  0
VERTEX
  8
T68SSILL
 62
2
 10
2085.513
 20
-8706.347
 30
-1543.165
 70
    32
  0
VERTEX
  8
T68SSILL
 62
2
 10
2035.640
 20
-8637.156
 30
-1541.596
 70
    32
  0
VERTEX
  8
T68SSILL
 62
2
 10
2026.592
 20
-8643.702
 30
-1541.623
 70
    32
  0
VERTEX
  8
T68SSILL
 62
2
 10
2023.055
 20
-8638.124
 30
-1541.501
 70
    32
  0
VERTEX
  8
T68SSILL
 62
2
 10
2031.419
 20
-8631.527
 30
-1541.467
 70
    32
  0
VERTEX
  8
T68SSILL
 62
2
 10
2019.969
 20
-8616.040
 30
-1541.114
 70
    32
  0
VERTEX
  8
T68SSILL
 62
2
 10
1944.354
 20
-8456.822
 30
-1537.849
 70
    32
  0
VERTEX
  8
T68SSILL
 62
2
 10
1937.998
 20
-8461.236
 30
-1537.865
 70
    32
  0
VERTEX
  8
T68SSILL
 62
2
 10
1933.850
 20
-8454.799
 30
-1537.723
 70
    32
  0
VERTEX
  8
T68SSILL
 62
2
 10
1940.658
 20
-8449.200
 30
-1537.692
 70
    32
  0
VERTEX
  8
T68SSILL
 62
2
 10
1815.073
 20
-8186.902
 30
-1535.847
 70
    32
  0
VERTEX
  8
T68SSILL
 62
2
 10
1802.435
 20
-8179.353
 30
-1536.000
 70
    32
  0
VERTEX
  8
T68SSILL
 62
2
 10
1794.771
 20
-8178.239
 30
-1536.144
 70
    32
  0
VERTEX
  8
T68SSILL
 62
2
 10
1787.704
 20
-8179.276
 30
-1536.306
 70
    32
  0
VERTEX
  8
T68SSILL
 62
2
 10
1647.908
 20
-8245.255
 30
-1540.173
 70
    32
  0
VERTEX
  8
T68SSILL
 62
2
 10
1644.300
 20
-8238.004
 30
-1540.143
 70
    32
  0
VERTEX
  8
T68SSILL
 62
2
 10
1751.503
 20
-8187.280
 30
-1537.175
 70
    32
  0
VERTEX
  8
T68SSILL
 62
2
 10
1752.445
 20
-8179.519
 30
-1537.043
 70
    32
  0
VERTEX
  8
T68SSILL
 62
2
 10
1760.702
 20
-8176.616
 30
-1536.829
 70
    32
  0
VERTEX
  8
T68SSILL
 62
2
 10
1765.469
 20
-8180.851
 30
-1536.791
 70
    32
  0
VERTEX
  8
T68SSILL
 62
2
 10
1779.726
 20
-8173.907
 30
-1536.394
 70
    32
  0
VERTEX
  8
T68SSILL
 62
2
 10
1790.920
 20
-8171.259
 30
-1536.122
 70
    32
  0
VERTEX
  8
T68SSILL
 62
2
 10
1802.104
 20
-8171.597
 30
-1535.894
 70
    32
  0
VERTEX
  8
T68SSILL
 62
2
 10
1809.505
 20
-8173.740
 30
-1535.772
 70
    32
  0
VERTEX
  8
T68SSILL
 62
2
 10
1790.000
 20
-8133.111
 30
-1535.587
 70
    32
  0
VERTEX
  8
T68SSILL
 62
2
 10
1696.005
 20
-7937.313
 30
-1540.580
 70
    32
  0
VERTEX
  8
T68SSILL
 62
2
 10
1677.843
 20
-7899.480
 30
-1540.317
 70
    32
  0
VERTEX
  8
T68SSILL
 62
2
 10
1659.045
 20
-7908.525
 30
-1540.307
 70
    32
  0
VERTEX
  8
T68SSILL
 62
2
 10
1653.433
 20
-7896.562
 30
-1540.284
 70
    32
  0
VERTEX
  8
T68SSILL
 62
2
 10
1670.794
 20
-7889.016
 30
-1540.248
 70
    32
  0
VERTEX
  8
T68SSILL
 62
2
 10
1702.932
 20
-7783.545
 30
-1539.965
 70
    32
  0
VERTEX
  8
T68SSILL
 62
2
 10
1711.312
 20
-7745.137
 30
-1539.865
 70
    32
  0
VERTEX
  8
T68SSILL
 62
2
 10
1713.905
 20
-7739.668
 30
-1539.849
 70
    32
  0
VERTEX
  8
T68SSILL
 62
2
 10
1715.849
 20
-7726.763
 30
-1539.816
 70
    32
  0
VERTEX
  8
T68SSILL
 62
2
 10
1714.703
 20
-7722.536
 30
-1539.807
 70
    32
  0
VERTEX
  8
T68SSILL
 62
2
 10
1719.351
 20
-7712.065
 30
-1539.778
 70
    32
  0
VERTEX
  8
T68SSILL
 62
2
 10
1722.658
 20
-7697.392
 30
-1539.740
 70
    32
  0
VERTEX
  8
T68SSILL
 62
2
 10
1723.427
 20
-7684.321
 30
-1539.703
 70
    32
  0
VERTEX
  8
T68SSILL
 62
2
 10
1720.161
 20
-7676.629
 30
-1539.671
 70
    32
  0
VERTEX
  8
T68SSILL
 62
2
 10
1724.213
 20
-7669.538
 30
-1539.654
 70
    32
  0
VERTEX
  8
T68SSILL
 62
2
 10
1733.183
 20
-7662.326
 30
-1539.645
 70
    32
  0
VERTEX
  8
T68SSILL
 62
2
 10
1732.974
 20
-7654.276
 30
-1539.617
 70
    32
  0
VERTEX
  8
T68SSILL
 62
2
 10
1735.789
 20
-7644.401
 30
-1539.588
 70
    32
  0
VERTEX
  8
T68SSILL
 62
2
 10
1727.524
 20
-7640.501
 30
-1539.560
 70
    32
  0
VERTEX
  8
T68SSILL
 62
2
 10
1725.851
 20
-7633.438
 30
-1539.533
 70
    32
  0
VERTEX
  8
T68SSILL
 62
2
 10
1733.805
 20
-7628.506
 30
-1539.530
 70
    32
  0
VERTEX
  8
T68SSILL
 62
2
 10
1743.658
 20
-7626.868
 30
-1539.542
 70
    32
  0
VERTEX
  8
T68SSILL
 62
2
 10
1751.352
 20
-7608.601
 30
-1539.493
 70
    32
  0
VERTEX
  8
T68SSILL
 62
2
 10
1751.775
 20
-7584.595
 30
-1539.411
 70
    32
  0
VERTEX
  8
T68SSILL
 62
2
 10
1745.709
 20
-7563.576
 30
-1539.329
 70
    32
  0
VERTEX
  8
T68SSILL
 62
2
 10
1753.706
 20
-7561.266
 30
-1539.335
 70
    32
  0
VERTEX
  8
T68SSILL
 62
2
 10
1764.339
 20
-7597.088
 30
-1539.459
 70
    32
  0
VERTEX
  8
T68SSILL
 62
2
 10
1766.394
 20
-7596.980
 30
-1539.456
 70
    32
  0
VERTEX
  8
T68SSILL
 62
2
 10
1777.899
 20
-7582.635
 30
-1539.411
 70
    32
  0
VERTEX
  8
T68SSILL
 62
2
 10
1762.975
 20
-7557.478
 30
-1539.338
 70
    32
  0
VERTEX
  8
T68SSILL
 62
2
 10
1769.393
 20
-7553.899
 30
-1539.338
 70
    32
  0
VERTEX
  8
T68SSILL
 62
2
 10
1785.505
 20
-7576.554
 30
-1539.389
 70
    32
  0
VERTEX
  8
T68SSILL
 62
2
 10
1796.946
 20
-7569.379
 30
-1539.360
 70
    32
  0
VERTEX
  8
T68SSILL
 62
2
 10
1796.827
 20
-7564.779
 30
-1539.349
 70
    32
  0
VERTEX
  8
T68SSILL
 62
2
 10
1791.937
 20
-7550.414
 30
-1539.320
 70
    32
  0
VERTEX
  8
T68SSILL
 62
2
 10
1812.348
 20
-7535.708
 30
-1539.264
 70
    32
  0
VERTEX
  8
T68SSILL
 62
2
 10
1819.342
 20
-7545.145
 30
-1539.280
 70
    32
  0
VERTEX
  8
T68SSILL
 62
2
 10
1824.269
 20
-7546.932
 30
-1539.279
 70
    32
  0
VERTEX
  8
T68SSILL
 62
2
 10
1826.726
 20
-7543.788
 30
-1539.269
 70
    32
  0
VERTEX
  8
T68SSILL
 62
2
 10
1830.720
 20
-7534.715
 30
-1539.244
 70
    32
  0
VERTEX
  8
T68SSILL
 62
2
 10
1833.187
 20
-7523.692
 30
-1539.215
 70
    32
  0
VERTEX
  8
T68SSILL
 62
2
 10
1833.414
 20
-7514.711
 30
-1539.193
 70
    32
  0
VERTEX
  8
T68SSILL
 62
2
 10
1831.413
 20
-7505.740
 30
-1539.174
 70
    32
  0
VERTEX
  8
T68SSILL
 62
2
 10
1810.927
 20
-7460.655
 30
-1539.087
 70
    32
  0
VERTEX
  8
T68SSILL
 62
2
 10
1804.956
 20
-7460.581
 30
-1539.081
 70
    32
  0
VERTEX
  8
T68SSILL
 62
2
 10
1798.038
 20
-7468.754
 30
-1539.097
 70
    32
  0
VERTEX
  8
T68SSILL
 62
2
 10
1784.989
 20
-7495.677
 30
-1539.166
 70
    32
  0
VERTEX
  8
T68SSILL
 62
2
 10
1780.524
 20
-7512.170
 30
-1539.214
 70
    32
  0
VERTEX
  8
T68SSILL
 62
2
 10
1775.552
 20
-7518.893
 30
-1539.229
 70
    32
  0
VERTEX
  8
T68SSILL
 62
2
 10
1760.054
 20
-7558.388
 30
-1539.336
 70
    32
  0
VERTEX
  8
T68SSILL
 62
2
 10
1750.343
 20
-7554.769
 30
-1539.307
 70
    32
  0
VERTEX
  8
T68SSILL
 62
2
 10
1769.453
 20
-7514.222
 30
-1539.202
 70
    32
  0
VERTEX
  8
T68SSILL
 62
2
 10
1767.589
 20
-7508.882
 30
-1539.180
 70
    32
  0
VERTEX
  8
T68SSILL
 62
2
 10
1769.669
 20
-7507.593
 30
-1539.179
 70
    32
  0
VERTEX
  8
T68SSILL
 62
2
 10
1778.905
 20
-7486.366
 30
-1539.123
 70
    32
  0
VERTEX
  8
T68SSILL
 62
2
 10
1761.310
 20
-7474.109
 30
-1539.050
 70
    32
  0
VERTEX
  8
T68SSILL
 62
2
 10
1765.283
 20
-7466.864
 30
-1539.032
 70
    32
  0
VERTEX
  8
T68SSILL
 62
2
 10
1779.697
 20
-7473.016
 30
-1539.079
 70
    32
  0
VERTEX
  8
T68SSILL
 62
2
 10
1786.325
 20
-7468.107
 30
-1539.074
 70
    32
  0
VERTEX
  8
T68SSILL
 62
2
 10
1795.696
 20
-7452.520
 30
-1539.037
 70
    32
  0
VERTEX
  8
T68SSILL
 62
2
 10
1792.391
 20
-7447.385
 30
-1539.013
 70
    32
  0
VERTEX
  8
T68SSILL
 62
2
 10
1800.457
 20
-7438.421
 30
-1538.997
 70
    32
  0
VERTEX
  8
T68SSILL
 62
2
 10
1513.342
 20
-6835.265
 30
-1536.302
 70
    32
  0
VERTEX
  8
T68SSILL
 62
2
 10
1502.818
 20
-6824.378
 30
-1536.240
 70
    32
  0
VERTEX
  8
T68SSILL
 62
2
 10
1498.138
 20
-6821.487
 30
-1536.225
 70
    32
  0
VERTEX
  8
T68SSILL
 62
2
 10
1490.000
 20
-6820.123
 30
-1536.222
 70
    32
  0
VERTEX
  8
T68SSILL
 62
2
 10
1483.056
 20
-6812.242
 30
-1536.177
 70
    32
  0
VERTEX
  8
T68SSILL
 62
2
 10
1482.397
 20
-6807.864
 30
-1536.149
 70
    32
  0
VERTEX
  8
T68SSILL
 62
2
 10
1485.510
 20
-6800.238
 30
-1536.099
 70
    32
  0
VERTEX
  8
T68SSILL
 62
2
 10
1485.594
 20
-6791.802
 30
-1536.074
 70
    32
  0
VERTEX
  8
T68SSILL
 62
2
 10
1488.010
 20
-6782.078
 30
-1536.063
 70
    32
  0
VERTEX
  8
T68SSILL
 62
2
 10
1449.801
 20
-6702.767
 30
-1535.710
 70
    32
  0
VERTEX
  8
T68SSILL
 62
2
 10
1430.828
 20
-6689.442
 30
-1535.595
 70
    32
  0
VERTEX
  8
T68SSILL
 62
2
 10
1420.516
 20
-6683.994
 30
-1535.536
 70
    32
  0
VERTEX
  8
T68SSILL
 62
2
 10
1386.555
 20
-6679.298
 30
-1535.399
 70
    32
  0
VERTEX
  8
T68SSILL
 62
2
 10
1371.187
 20
-6675.084
 30
-1535.382
 70
    32
  0
VERTEX
  8
T68SSILL
 62
2
 10
1352.256
 20
-6664.309
 30
-1535.327
 70
    32
  0
VERTEX
  8
T68SSILL
 62
2
 10
1341.743
 20
-6654.059
 30
-1535.269
 70
    32
  0
VERTEX
  8
T68SSILL
 62
2
 10
1436.006
 20
-6913.678
 30
-1536.623
 70
    32
  0
VERTEX
  8
T68SSILL
 62
2
 10
1426.207
 20
-6917.220
 30
-1536.616
 70
    32
  0
VERTEX
  8
T68SSILL
 62
2
 10
1362.134
 20
-6739.764
 30
-1535.823
 70
    32
  0
VERTEX
  8
T68SSILL
 62
2
 10
1353.946
 20
-6733.816
 30
-1535.791
 70
    32
  0
VERTEX
  8
T68SSILL
 62
2
 10
1339.605
 20
-6735.446
 30
-1535.829
 70
    32
  0
VERTEX
  8
T68SSILL
 62
2
 10
1334.159
 20
-6723.201
 30
-1535.743
 70
    32
  0
VERTEX
  8
T68SSILL
 62
2
 10
1343.913
 20
-6719.905
 30
-1535.700
 70
    32
  0
VERTEX
  8
T68SSILL
 62
2
 10
1348.306
 20
-6712.576
 30
-1535.636
 70
    32
  0
VERTEX
  8
T68SSILL
 62
2
 10
1349.793
 20
-6704.461
 30
-1535.584
 70
    32
  0
VERTEX
  8
T68SSILL
 62
2
 10
1318.047
 20
-6615.532
 30
-1535.041
 70
    32
  0
VERTEX
  8
T68SSILL
 62
2
 10
1192.134
 20
-6371.210
 30
-1534.063
 70
    32
  0
VERTEX
  8
T68SSILL
 62
2
 10
1174.813
 20
-6347.831
 30
-1533.984
 70
    32
  0
VERTEX
  8
T68SSILL
 62
2
 10
1117.450
 20
-6001.946
 30
-1532.322
 70
    32
  0
VERTEX
  8
T68SSILL
 62
2
 10
1111.559
 20
-5984.855
 30
-1532.276
 70
    32
  0
VERTEX
  8
T68SSILL
 62
2
 10
1105.397
 20
-5981.375
 30
-1532.233
 70
    32
  0
VERTEX
  8
T68SSILL
 62
2
 10
1063.754
 20
-6010.981
 30
-1532.283
 70
    32
  0
VERTEX
  8
T68SSILL
 62
2
 10
1062.652
 20
-6015.608
 30
-1532.293
 70
    32
  0
VERTEX
  8
T68SSILL
 62
2
 10
1055.991
 20
-6022.140
 30
-1532.306
 70
    32
  0
VERTEX
  8
T68SSILL
 62
2
 10
1052.053
 20
-6024.215
 30
-1532.309
 70
    32
  0
VERTEX
  8
T68SSILL
 62
2
 10
1047.134
 20
-6023.313
 30
-1532.305
 70
    32
  0
VERTEX
  8
T68SSILL
 62
2
 10
1037.520
 20
-6030.702
 30
-1532.319
 70
    32
  0
VERTEX
  8
T68SSILL
 62
2
 10
1040.949
 20
-6038.002
 30
-1532.336
 70
    32
  0
VERTEX
  8
T68SSILL
 62
2
 10
1029.415
 20
-6046.501
 30
-1532.352
 70
    32
  0
VERTEX
  8
T68SSILL
 62
2
 10
1021.863
 20
-6041.940
 30
-1532.339
 70
    32
  0
VERTEX
  8
T68SSILL
 62
2
 10
975.272
 20
-6076.359
 30
-1532.324
 70
    32
  0
VERTEX
  8
T68SSILL
 62
2
 10
971.335
 20
-6069.410
 30
-1532.319
 70
    32
  0
VERTEX
  8
T68SSILL
 62
2
 10
1021.305
 20
-6033.196
 30
-1532.318
 70
    32
  0
VERTEX
  8
T68SSILL
 62
2
 10
1021.118
 20
-6030.747
 30
-1532.313
 70
    32
  0
VERTEX
  8
T68SSILL
 62
2
 10
1029.707
 20
-6025.140
 30
-1532.303
 70
    32
  0
VERTEX
  8
T68SSILL
 62
2
 10
1031.674
 20
-6025.501
 30
-1532.305
 70
    32
  0
VERTEX
  8
T68SSILL
 62
2
 10
1037.729
 20
-6020.891
 30
-1532.296
 70
    32
  0
VERTEX
  8
T68SSILL
 62
2
 10
1038.923
 20
-6012.308
 30
-1532.277
 70
    32
  0
VERTEX
  8
T68SSILL
 62
2
 10
1045.081
 20
-5999.490
 30
-1532.250
 70
    32
  0
VERTEX
  8
T68SSILL
 62
2
 10
1049.948
 20
-5997.205
 30
-1532.246
 70
    32
  0
VERTEX
  8
T68SSILL
 62
2
 10
1054.454
 20
-6001.398
 30
-1532.258
 70
    32
  0
VERTEX
  8
T68SSILL
 62
2
 10
1061.114
 20
-6003.889
 30
-1532.266
 70
    32
  0
VERTEX
  8
T68SSILL
 62
2
 10
1088.158
 20
-5984.253
 30
-1532.230
 70
    32
  0
VERTEX
  8
T68SSILL
 62
2
 10
1097.255
 20
-5970.669
 30
-1532.210
 70
    32
  0
VERTEX
  8
T68SSILL
 62
2
 10
1105.341
 20
-5938.864
 30
-1532.257
 70
    32
  0
VERTEX
  8
T68SSILL
 62
2
 10
1094.283
 20
-5871.122
 30
-1532.236
 70
    32
  0
VERTEX
  8
T68SSILL
 62
2
 10
1085.660
 20
-5875.456
 30
-1532.219
 70
    32
  0
VERTEX
  8
T68SSILL
 62
2
 10
1048.383
 20
-5909.675
 30
-1532.216
 70
    32
  0
VERTEX
  8
T68SSILL
 62
2
 10
958.558
 20
-5975.442
 30
-1532.212
 70
    32
  0
VERTEX
  8
T68SSILL
 62
2
 10
952.683
 20
-5966.931
 30
-1532.213
 70
    32
  0
VERTEX
  8
T68SSILL
 62
2
 10
1033.938
 20
-5904.931
 30
-1532.217
 70
    32
  0
VERTEX
  8
T68SSILL
 62
2
 10
1037.217
 20
-5887.641
 30
-1532.219
 70
    32
  0
VERTEX
  8
T68SSILL
 62
2
 10
1041.572
 20
-5885.137
 30
-1532.219
 70
    32
  0
VERTEX
  8
T68SSILL
 62
2
 10
1056.010
 20
-5887.117
 30
-1532.218
 70
    32
  0
VERTEX
  8
T68SSILL
 62
2
 10
1063.620
 20
-5881.648
 30
-1532.219
 70
    32
  0
VERTEX
  8
T68SSILL
 62
2
 10
1078.313
 20
-5868.391
 30
-1532.220
 70
    32
  0
VERTEX
  8
T68SSILL
 62
2
 10
1083.885
 20
-5861.215
 30
-1532.220
 70
    32
  0
VERTEX
  8
T68SSILL
 62
2
 10
1089.818
 20
-5847.560
 30
-1532.225
 70
    32
  0
VERTEX
  8
T68SSILL
 62
2
 10
1039.527
 20
-5537.583
 30
-1531.614
 70
    32
  0
VERTEX
  8
T68SSILL
 62
2
 10
1038.975
 20
-5524.247
 30
-1531.618
 70
    32
  0
VERTEX
  8
T68SSILL
 62
2
 10
1040.417
 20
-5510.386
 30
-1531.580
 70
    32
  0
VERTEX
  8
T68SSILL
 62
2
 10
1047.929
 20
-5489.966
 30
-1531.519
 70
    32
  0
VERTEX
  8
T68SSILL
 62
2
 10
1061.961
 20
-5469.210
 30
-1531.453
 70
    32
  0
VERTEX
  8
T68SSILL
 62
2
 10
1072.305
 20
-5459.691
 30
-1531.420
 70
    32
  0
VERTEX
  8
T68SSILL
 62
2
 10
1060.711
 20
-5442.637
 30
-1531.383
 70
    32
  0
VERTEX
  8
T68SSILL
 62
2
 10
1070.927
 20
-5435.564
 30
-1531.356
 70
    32
  0
VERTEX
  8
T68SSILL
 62
2
 10
1082.832
 20
-5452.294
 30
-1531.392
 70
    32
  0
VERTEX
  8
T68SSILL
 62
2
 10
1145.327
 20
-5410.202
 30
-1531.233
 70
    32
  0
VERTEX
  8
T68SSILL
 62
2
 10
1144.118
 20
-5405.359
 30
-1531.221
 70
    32
  0
VERTEX
  8
T68SSILL
 62
2
 10
1145.907
 20
-5402.834
 30
-1531.213
 70
    32
  0
VERTEX
  8
T68SSILL
 62
2
 10
1136.870
 20
-5350.463
 30
-1531.078
 70
    32
  0
VERTEX
  8
T68SSILL
 62
2
 10
1143.964
 20
-5349.410
 30
-1531.070
 70
    32
  0
VERTEX
  8
T68SSILL
 62
2
 10
1152.711
 20
-5400.588
 30
-1531.202
 70
    32
  0
VERTEX
  8
T68SSILL
 62
2
 10
1155.587
 20
-5404.277
 30
-1531.210
 70
    32
  0
VERTEX
  8
T68SSILL
 62
2
 10
1381.656
 20
-5256.324
 30
-1530.645
 70
    32
  0
VERTEX
  8
T68SSILL
 62
2
 10
1383.189
 20
-5253.119
 30
-1530.636
 70
    32
  0
VERTEX
  8
T68SSILL
 62
2
 10
1389.965
 20
-5250.678
 30
-1530.624
 70
    32
  0
VERTEX
  8
T68SSILL
 62
2
 10
1630.719
 20
-5092.825
 30
-1530.169
 70
    32
  0
VERTEX
  8
T68SSILL
 62
2
 10
1624.633
 20
-5084.409
 30
-1530.117
 70
    32
  0
VERTEX
  8
T68SSILL
 62
2
 10
1616.690
 20
-5080.953
 30
-1530.087
 70
    32
  0
VERTEX
  8
T68SSILL
 62
2
 10
1617.293
 20
-5079.487
 30
-1530.080
 70
    32
  0
VERTEX
  8
T68SSILL
 62
2
 10
1587.544
 20
-5036.524
 30
-1529.817
 70
    32
  0
VERTEX
  8
T68SSILL
 62
2
 10
1577.324
 20
-4949.150
 30
-1529.399
 70
    32
  0
VERTEX
  8
T68SSILL
 62
2
 10
1578.833
 20
-4936.579
 30
-1529.393
 70
    32
  0
VERTEX
  8
T68SSILL
 62
2
 10
1585.674
 20
-4921.375
 30
-1529.381
 70
    32
  0
VERTEX
  8
T68SSILL
 62
2
 10
1846.254
 20
-4748.945
 30
-1528.716
 70
    32
  0
VERTEX
  8
T68SSILL
 62
2
 10
1861.531
 20
-4744.075
 30
-1528.771
 70
    32
  0
VERTEX
  8
T68SSILL
 62
2
 10
1872.315
 20
-4744.030
 30
-1528.805
 70
    32
  0
VERTEX
  8
T68SSILL
 62
2
 10
1880.378
 20
-4746.875
 30
-1528.825
 70
    32
  0
VERTEX
  8
T68SSILL
 62
2
 10
1890.877
 20
-4754.761
 30
-1528.848
 70
    32
  0
VERTEX
  8
T68SSILL
 62
2
 10
1902.637
 20
-4772.400
 30
-1528.971
 70
    32
  0
VERTEX
  8
T68SSILL
 62
2
 10
1895.849
 20
-4776.966
 30
-1528.970
 70
    32
  0
VERTEX
  8
T68SSILL
 62
2
 10
1885.487
 20
-4760.932
 30
-1528.863
 70
    32
  0
VERTEX
  8
T68SSILL
 62
2
 10
1874.696
 20
-4753.560
 30
-1528.796
 70
    32
  0
VERTEX
  8
T68SSILL
 62
2
 10
1864.687
 20
-4751.918
 30
-1528.768
 70
    32
  0
VERTEX
  8
T68SSILL
 62
2
 10
1851.696
 20
-4755.144
 30
-1528.730
 70
    32
  0
VERTEX
  8
T68SSILL
 62
2
 10
1598.248
 20
-4923.519
 30
-1529.374
 70
    32
  0
VERTEX
  8
T68SSILL
 62
2
 10
1589.091
 20
-4933.389
 30
-1529.385
 70
    32
  0
VERTEX
  8
T68SSILL
 62
2
 10
1585.497
 20
-4943.334
 30
-1529.392
 70
    32
  0
VERTEX
  8
T68SSILL
 62
2
 10
1596.399
 20
-5030.144
 30
-1529.799
 70
    32
  0
VERTEX
  8
T68SSILL
 62
2
 10
1625.983
 20
-5074.595
 30
-1530.070
 70
    32
  0
VERTEX
  8
T68SSILL
 62
2
 10
1646.994
 20
-5081.559
 30
-1530.138
 70
    32
  0
VERTEX
  8
T68SSILL
 62
2
 10
1802.296
 20
-4978.783
 30
-1529.871
 70
    32
  0
VERTEX
  8
T68SSILL
 62
2
 10
1797.952
 20
-4972.799
 30
-1529.834
 70
    32
  0
VERTEX
  8
T68SSILL
 62
2
 10
1777.629
 20
-4966.858
 30
-1529.772
 70
    32
  0
VERTEX
  8
T68SSILL
 62
2
 10
1781.047
 20
-4955.865
 30
-1529.722
 70
    32
  0
VERTEX
  8
T68SSILL
 62
2
 10
1820.958
 20
-4966.653
 30
-1529.841
 70
    32
  0
VERTEX
  8
T68SSILL
 62
2
 10
1852.173
 20
-4945.760
 30
-1529.786
 70
    32
  0
VERTEX
  8
T68SSILL
 62
2
 10
1855.050
 20
-4933.647
 30
-1529.737
 70
    32
  0
VERTEX
  8
T68SSILL
 62
2
 10
1816.279
 20
-4874.279
 30
-1529.383
 70
    32
  0
VERTEX
  8
T68SSILL
 62
2
 10
1814.554
 20
-4858.476
 30
-1529.292
 70
    32
  0
VERTEX
  8
T68SSILL
 62
2
 10
1817.121
 20
-4847.950
 30
-1529.232
 70
    32
  0
VERTEX
  8
T68SSILL
 62
2
 10
1821.581
 20
-4841.027
 30
-1529.193
 70
    32
  0
VERTEX
  8
T68SSILL
 62
2
 10
1829.992
 20
-4833.673
 30
-1529.154
 70
    32
  0
VERTEX
  8
T68SSILL
 62
2
 10
1985.875
 20
-4729.870
 30
-1529.178
 70
    32
  0
VERTEX
  8
T68SSILL
 62
2
 10
1999.198
 20
-4724.300
 30
-1529.228
 70
    32
  0
VERTEX
  8
T68SSILL
 62
2
 10
2015.671
 20
-4725.622
 30
-1529.277
 70
    32
  0
VERTEX
  8
T68SSILL
 62
2
 10
2026.630
 20
-4732.457
 30
-1529.300
 70
    32
  0
VERTEX
  8
T68SSILL
 62
2
 10
2071.705
 20
-4799.777
 30
-1529.634
 70
    32
  0
VERTEX
  8
T68SSILL
 62
2
 10
2099.401
 20
-4781.749
 30
-1529.627
 70
    32
  0
VERTEX
  8
T68SSILL
 62
2
 10
2095.630
 20
-4776.488
 30
-1529.588
 70
    32
  0
VERTEX
  8
T68SSILL
 62
2
 10
2068.083
 20
-4770.015
 30
-1529.470
 70
    32
  0
VERTEX
  8
T68SSILL
 62
2
 10
2071.111
 20
-4758.871
 30
-1529.423
 70
    32
  0
VERTEX
  8
T68SSILL
 62
2
 10
2104.368
 20
-4768.112
 30
-1529.572
 70
    32
  0
VERTEX
  8
T68SSILL
 62
2
 10
2115.384
 20
-4765.322
 30
-1529.592
 70
    32
  0
VERTEX
  8
T68SSILL
 62
2
 10
2121.099
 20
-4762.145
 30
-1529.593
 70
    32
  0
VERTEX
  8
T68SSILL
 62
2
 10
2142.689
 20
-4739.904
 30
-1529.609
 70
    32
  0
VERTEX
  8
T68SSILL
 62
2
 10
2150.944
 20
-4726.241
 30
-1529.590
 70
    32
  0
VERTEX
  8
T68SSILL
 62
2
 10
2163.945
 20
-4696.650
 30
-1529.541
 70
    32
  0
VERTEX
  8
T68SSILL
 62
2
 10
2155.573
 20
-4676.165
 30
-1529.524
 70
    32
  0
VERTEX
  8
T68SSILL
 62
2
 10
2156.274
 20
-4669.116
 30
-1529.515
 70
    32
  0
VERTEX
  8
T68SSILL
 62
2
 10
2166.593
 20
-4642.902
 30
-1529.473
 70
    32
  0
VERTEX
  8
T68SSILL
 62
2
 10
2171.135
 20
-4635.225
 30
-1529.459
 70
    32
  0
VERTEX
  8
T68SSILL
 62
2
 10
2175.870
 20
-4635.024
 30
-1529.454
 70
    32
  0
VERTEX
  8
T68SSILL
 62
2
 10
2179.234
 20
-4637.786
 30
-1529.454
 70
    32
  0
VERTEX
  8
T68SSILL
 62
2
 10
2191.646
 20
-4630.971
 30
-1529.434
 70
    32
  0
VERTEX
  8
T68SSILL
 62
2
 10
2201.040
 20
-4608.427
 30
-1529.397
 70
    32
  0
VERTEX
  8
T68SSILL
 62
2
 10
2194.785
 20
-4604.375
 30
-1529.399
 70
    32
  0
VERTEX
  8
T68SSILL
 62
2
 10
2024.880
 20
-4725.302
 30
-1529.306
 70
    32
  0
VERTEX
  8
T68SSILL
 62
2
 10
2020.618
 20
-4717.713
 30
-1529.305
 70
    32
  0
VERTEX
  8
T68SSILL
 62
2
 10
2025.289
 20
-4706.362
 30
-1529.338
 70
    32
  0
VERTEX
  8
T68SSILL
 62
2
 10
2046.040
 20
-4692.128
 30
-1529.399
 70
    32
  0
VERTEX
  8
T68SSILL
 62
2
 10
2047.414
 20
-4686.301
 30
-1529.395
 70
    32
  0
VERTEX
  8
T68SSILL
 62
2
 10
2105.517
 20
-4647.163
 30
-1529.448
 70
    32
  0
VERTEX
  8
T68SSILL
 62
2
 10
2114.179
 20
-4648.975
 30
-1529.464
 70
    32
  0
VERTEX
  8
T68SSILL
 62
2
 10
2118.916
 20
-4646.100
 30
-1529.469
 70
    32
  0
VERTEX
  8
T68SSILL
 62
2
 10
2181.337
 20
-4601.672
 30
-1529.408
 70
    32
  0
VERTEX
  8
T68SSILL
 62
2
 10
2186.347
 20
-4594.753
 30
-1529.395
 70
    32
  0
VERTEX
  8
T68SSILL
 62
2
 10
2210.676
 20
-4571.420
 30
-1529.343
 70
    32
  0
VERTEX
  8
T68SSILL
 62
2
 10
2208.653
 20
-4560.595
 30
-1529.332
 70
    32
  0
VERTEX
  8
T68SSILL
 62
2
 10
2214.970
 20
-4551.421
 30
-1529.314
 70
    32
  0
VERTEX
  8
T68SSILL
 62
2
 10
2226.121
 20
-4528.860
 30
-1529.276
 70
    32
  0
VERTEX
  8
T68SSILL
 62
2
 10
2229.926
 20
-4529.740
 30
-1529.273
 70
    32
  0
VERTEX
  8
T68SSILL
 62
2
 10
2233.714
 20
-4493.880
 30
-1529.226
 70
    32
  0
VERTEX
  8
T68SSILL
 62
2
 10
2222.614
 20
-4463.490
 30
-1529.200
 70
    32
  0
VERTEX
  8
T68SSILL
 62
2
 10
2208.137
 20
-4461.665
 30
-1529.212
 70
    32
  0
VERTEX
  8
T68SSILL
 62
2
 10
2203.870
 20
-4458.553
 30
-1529.212
 70
    32
  0
VERTEX
  8
T68SSILL
 62
2
 10
2199.905
 20
-4451.334
 30
-1529.207
 70
    32
  0
VERTEX
  8
T68SSILL
 62
2
 10
2191.500
 20
-4447.252
 30
-1529.211
 70
    32
  0
VERTEX
  8
T68SSILL
 62
2
 10
2163.054
 20
-4401.491
 30
-1529.183
 70
    32
  0
VERTEX
  8
T68SSILL
 62
2
 10
2149.542
 20
-4373.646
 30
-1529.162
 70
    32
  0
VERTEX
  8
T68SSILL
 62
2
 10
2153.683
 20
-4352.623
 30
-1529.133
 70
    32
  0
VERTEX
  8
T68SSILL
 62
2
 10
2163.825
 20
-4346.207
 30
-1529.130
 70
    32
  0
VERTEX
  8
T68SSILL
 62
2
 10
2286.291
 20
-4543.180
 30
-1529.249
 70
    32
  0
VERTEX
  8
T68SSILL
 62
2
 10
2297.819
 20
-4568.751
 30
-1529.261
 70
    32
  0
VERTEX
  8
T68SSILL
 62
2
 10
2255.437
 20
-4687.100
 30
-1529.435
 70
    32
  0
VERTEX
  8
T68SSILL
 62
2
 10
2214.127
 20
-4714.485
 30
-1529.572
 70
    32
  0
VERTEX
  8
T68SSILL
 62
2
 10
2216.032
 20
-4720.204
 30
-1529.569
 70
    32
  0
VERTEX
  8
T68SSILL
 62
2
 10
2193.172
 20
-4734.502
 30
-1529.645
 70
    32
  0
VERTEX
  8
T68SSILL
 62
2
 10
2181.424
 20
-4737.362
 30
-1529.637
 70
    32
  0
VERTEX
  8
T68SSILL
 62
2
 10
2179.202
 20
-4743.081
 30
-1529.654
 70
    32
  0
VERTEX
  8
T68SSILL
 62
2
 10
2168.724
 20
-4752.613
 30
-1529.668
 70
    32
  0
VERTEX
  8
T68SSILL
 62
2
 10
2162.374
 20
-4751.660
 30
-1529.652
 70
    32
  0
VERTEX
  8
T68SSILL
 62
2
 10
2159.517
 20
-4756.108
 30
-1529.663
 70
    32
  0
VERTEX
  8
T68SSILL
 62
2
 10
2158.713
 20
-4762.587
 30
-1529.685
 70
    32
  0
VERTEX
  8
T68SSILL
 62
2
 10
2162.044
 20
-4769.221
 30
-1529.716
 70
    32
  0
VERTEX
  8
T68SSILL
 62
2
 10
2162.566
 20
-4795.056
 30
-1529.764
 70
    32
  0
VERTEX
  8
T68SSILL
 62
2
 10
2165.617
 20
-4801.167
 30
-1529.757
 70
    32
  0
VERTEX
  8
T68SSILL
 62
2
 10
2172.042
 20
-4803.312
 30
-1529.738
 70
    32
  0
VERTEX
  8
T68SSILL
 62
2
 10
2169.244
 20
-4810.813
 30
-1529.750
 70
    32
  0
VERTEX
  8
T68SSILL
 62
2
 10
2106.698
 20
-4795.533
 30
-1529.701
 70
    32
  0
VERTEX
  8
T68SSILL
 62
2
 10
2100.403
 20
-4795.632
 30
-1529.689
 70
    32
  0
VERTEX
  8
T68SSILL
 62
2
 10
2041.842
 20
-4834.815
 30
-1529.678
 70
    32
  0
VERTEX
  8
T68SSILL
 62
2
 10
2049.579
 20
-4847.420
 30
-1529.699
 70
    32
  0
VERTEX
  8
T68SSILL
 62
2
 10
2017.296
 20
-4869.562
 30
-1529.681
 70
    32
  0
VERTEX
  8
T68SSILL
 62
2
 10
2008.656
 20
-4857.033
 30
-1529.662
 70
    32
  0
VERTEX
  8
T68SSILL
 62
2
 10
2005.224
 20
-4859.023
 30
-1529.660
 70
    32
  0
VERTEX
  8
T68SSILL
 62
2
 10
1992.572
 20
-4861.491
 30
-1529.648
 70
    32
  0
VERTEX
  8
T68SSILL
 62
2
 10
1930.358
 20
-4902.495
 30
-1529.708
 70
    32
  0
VERTEX
  8
T68SSILL
 62
2
 10
1935.024
 20
-4915.577
 30
-1529.716
 70
    32
  0
VERTEX
  8
T68SSILL
 62
2
 10
1924.152
 20
-4929.675
 30
-1529.734
 70
    32
  0
VERTEX
  8
T68SSILL
 62
2
 10
1911.909
 20
-4936.533
 30
-1529.748
 70
    32
  0
VERTEX
  8
T68SSILL
 62
2
 10
1899.215
 20
-4923.021
 30
-1529.744
 70
    32
  0
VERTEX
  8
T68SSILL
 62
2
 10
1692.921
 20
-5060.629
 30
-1530.089
 70
    32
  0
VERTEX
  8
T68SSILL
 62
2
 10
1698.051
 20
-5068.098
 30
-1530.089
 70
    32
  0
VERTEX
  8
T68SSILL
 62
2
 10
1684.936
 20
-5076.497
 30
-1530.112
 70
    32
  0
VERTEX
  8
T68SSILL
 62
2
 10
1679.513
 20
-5069.224
 30
-1530.112
 70
    32
  0
VERTEX
  8
T68SSILL
 62
2
 10
1444.414
 20
-5223.589
 30
-1530.526
 70
    32
  0
VERTEX
  8
T68SSILL
 62
2
 10
1442.726
 20
-5231.832
 30
-1530.535
 70
    32
  0
VERTEX
  8
T68SSILL
 62
2
 10
1435.353
 20
-5236.508
 30
-1530.548
 70
    32
  0
VERTEX
  8
T68SSILL
 62
2
 10
1447.012
 20
-5254.210
 30
-1530.550
 70
    32
  0
VERTEX
  8
T68SSILL
 62
2
 10
1446.462
 20
-5259.363
 30
-1530.555
 70
    32
  0
VERTEX
  8
T68SSILL
 62
2
 10
1442.984
 20
-5261.771
 30
-1530.561
 70
    32
  0
VERTEX
  8
T68SSILL
 62
2
 10
1432.255
 20
-5247.978
 30
-1530.562
 70
    32
  0
VERTEX
  8
T68SSILL
 62
2
 10
1386.729
 20
-5279.285
 30
-1530.648
 70
    32
  0
VERTEX
  8
T68SSILL
 62
2
 10
1381.707
 20
-5271.723
 30
-1530.677
 70
    32
  0
VERTEX
  8
T68SSILL
 62
2
 10
1373.565
 20
-5284.112
 30
-1530.691
 70
    32
  0
VERTEX
  8
T68SSILL
 62
2
 10
1375.360
 20
-5286.085
 30
-1530.682
 70
    32
  0
VERTEX
  8
T68SSILL
 62
2
 10
1354.021
 20
-5301.396
 30
-1530.742
 70
    32
  0
VERTEX
  8
T68SSILL
 62
2
 10
1349.250
 20
-5299.769
 30
-1530.762
 70
    32
  0
VERTEX
  8
T68SSILL
 62
2
 10
1341.961
 20
-5303.637
 30
-1530.784
 70
    32
  0
VERTEX
  8
T68SSILL
 62
2
 10
1310.623
 20
-5313.331
 30
-1530.851
 70
    32
  0
VERTEX
  8
T68SSILL
 62
2
 10
1255.595
 20
-5349.180
 30
-1530.988
 70
    32
  0
VERTEX
  8
T68SSILL
 62
2
 10
1249.120
 20
-5367.383
 30
-1531.042
 70
    32
  0
VERTEX
  8
T68SSILL
 62
2
 10
1245.965
 20
-5546.417
 30
-1530.832
 70
    32
  0
VERTEX
  8
T68SSILL
 62
2
 10
1264.452
 20
-5556.553
 30
-1530.750
 70
    32
  0
VERTEX
  8
T68SSILL
 62
2
 10
1263.912
 20
-5564.751
 30
-1530.741
 70
    32
  0
VERTEX
  8
T68SSILL
 62
2
 10
1257.809
 20
-5566.619
 30
-1530.762
 70
    32
  0
VERTEX
  8
T68SSILL
 62
2
 10
1260.819
 20
-5576.539
 30
-1530.738
 70
    32
  0
VERTEX
  8
T68SSILL
 62
2
 10
1256.311
 20
-5585.663
 30
-1530.743
 70
    32
  0
VERTEX
  8
T68SSILL
 62
2
 10
1256.668
 20
-5589.274
 30
-1530.737
 70
    32
  0
VERTEX
  8
T68SSILL
 62
2
 10
1262.163
 20
-5598.759
 30
-1530.779
 70
    32
  0
VERTEX
  8
T68SSILL
 62
2
 10
1270.719
 20
-5608.484
 30
-1530.874
 70
    32
  0
VERTEX
  8
T68SSILL
 62
2
 10
1299.901
 20
-5626.328
 30
-1531.150
 70
    32
  0
VERTEX
  8
T68SSILL
 62
2
 10
1302.905
 20
-5624.784
 30
-1531.180
 70
    32
  0
VERTEX
  8
T68SSILL
 62
2
 10
1312.815
 20
-5630.892
 30
-1531.339
 70
    32
  0
VERTEX
  8
T68SSILL
 62
2
 10
1314.804
 20
-5634.230
 30
-1531.383
 70
    32
  0
VERTEX
  8
T68SSILL
 62
2
 10
1368.298
 20
-5666.752
 30
-1531.588
 70
    32
  0
VERTEX
  8
T68SSILL
 62
2
 10
1363.812
 20
-5674.360
 30
-1531.617
 70
    32
  0
VERTEX
  8
T68SSILL
 62
2
 10
1324.157
 20
-5650.369
 30
-1531.591
 70
    32
  0
VERTEX
  8
T68SSILL
 62
2
 10
1311.668
 20
-5660.196
 30
-1531.488
 70
    32
  0
VERTEX
  8
T68SSILL
 62
2
 10
1298.727
 20
-5652.650
 30
-1531.282
 70
    32
  0
VERTEX
  8
T68SSILL
 62
2
 10
1295.264
 20
-5649.050
 30
-1531.218
 70
    32
  0
VERTEX
  8
T68SSILL
 62
2
 10
1293.554
 20
-5642.084
 30
-1531.158
 70
    32
  0
VERTEX
  8
T68SSILL
 62
2
 10
1295.933
 20
-5632.826
 30
-1531.138
 70
    32
  0
VERTEX
  8
T68SSILL
 62
2
 10
1262.443
 20
-5611.856
 30
-1530.829
 70
    32
  0
VERTEX
  8
T68SSILL
 62
2
 10
1313.276
 20
-5815.459
 30
-1532.096
 70
    32
  0
VERTEX
  8
T68SSILL
 62
2
 10
1363.304
 20
-6005.780
 30
-1533.293
 70
    32
  0
VERTEX
  8
T68SSILL
 62
2
 10
1373.448
 20
-6019.981
 30
-1533.213
 70
    32
  0
VERTEX
  8
T68SSILL
 62
2
 10
1378.866
 20
-6043.332
 30
-1533.093
 70
    32
  0
VERTEX
  8
T68SSILL
 62
2
 10
1389.494
 20
-6070.668
 30
-1532.949
 70
    32
  0
VERTEX
  8
T68SSILL
 62
2
 10
1387.978
 20
-6075.503
 30
-1532.927
 70
    32
  0
VERTEX
  8
T68SSILL
 62
2
 10
1382.888
 20
-6081.301
 30
-1532.903
 70
    32
  0
VERTEX
  8
T68SSILL
 62
2
 10
1446.680
 20
-6327.202
 30
-1531.977
 70
    32
  0
VERTEX
  8
T68SSILL
 62
2
 10
1453.806
 20
-6327.349
 30
-1531.997
 70
    32
  0
VERTEX
  8
T68SSILL
 62
2
 10
1506.969
 20
-6257.209
 30
-1533.023
 70
    32
  0
VERTEX
  8
T68SSILL
 62
2
 10
1513.909
 20
-6262.952
 30
-1533.042
 70
    32
  0
VERTEX
  8
T68SSILL
 62
2
 10
1452.559
 20
-6343.893
 30
-1532.102
 70
    32
  0
VERTEX
  8
T68SSILL
 62
2
 10
1455.850
 20
-6362.546
 30
-1532.233
 70
    32
  0
VERTEX
  8
T68SSILL
 62
2
 10
1479.477
 20
-6453.622
 30
-1532.891
 70
    32
  0
VERTEX
  8
T68SSILL
 62
2
 10
1484.327
 20
-6444.490
 30
-1532.843
 70
    32
  0
VERTEX
  8
T68SSILL
 62
2
 10
1536.103
 20
-6389.816
 30
-1532.617
 70
    32
  0
VERTEX
  8
T68SSILL
 62
2
 10
1536.293
 20
-6386.169
 30
-1532.594
 70
    32
  0
VERTEX
  8
T68SSILL
 62
2
 10
1539.634
 20
-6382.633
 30
-1532.579
 70
    32
  0
VERTEX
  8
T68SSILL
 62
2
 10
1542.357
 20
-6374.944
 30
-1532.536
 70
    32
  0
VERTEX
  8
T68SSILL
 62
2
 10
1545.668
 20
-6376.476
 30
-1532.554
 70
    32
  0
VERTEX
  8
T68SSILL
 62
2
 10
1570.243
 20
-6350.645
 30
-1532.676
 70
    32
  0
VERTEX
  8
T68SSILL
 62
2
 10
1578.795
 20
-6355.151
 30
-1532.743
 70
    32
  0
VERTEX
  8
T68SSILL
 62
2
 10
1545.763
 20
-6390.881
 30
-1532.649
 70
    32
  0
VERTEX
  8
T68SSILL
 62
2
 10
1591.414
 20
-6361.623
 30
-1532.844
 70
    32
  0
VERTEX
  8
T68SSILL
 62
2
 10
1591.669
 20
-6354.309
 30
-1532.966
 70
    32
  0
VERTEX
  8
T68SSILL
 62
2
 10
1606.060
 20
-6341.723
 30
-1533.329
 70
    32
  0
VERTEX
  8
T68SSILL
 62
2
 10
1609.711
 20
-6340.264
 30
-1533.288
 70
    32
  0
VERTEX
  8
T68SSILL
 62
2
 10
1617.962
 20
-6343.455
 30
-1533.269
 70
    32
  0
VERTEX
  8
T68SSILL
 62
2
 10
1662.096
 20
-6314.974
 30
-1532.642
 70
    32
  0
VERTEX
  8
T68SSILL
 62
2
 10
1667.774
 20
-6322.454
 30
-1532.690
 70
    32
  0
VERTEX
  8
T68SSILL
 62
2
 10
1627.792
 20
-6349.111
 30
-1533.268
 70
    32
  0
VERTEX
  8
T68SSILL
 62
2
 10
1617.622
 20
-6370.789
 30
-1533.123
 70
    32
  0
VERTEX
  8
T68SSILL
 62
2
 10
1624.562
 20
-6388.863
 30
-1532.946
 70
    32
  0
VERTEX
  8
T68SSILL
 62
2
 10
1632.722
 20
-6404.401
 30
-1532.960
 70
    32
  0
VERTEX
  8
T68SSILL
 62
2
 10
1648.428
 20
-6426.824
 30
-1533.148
 70
    32
  0
VERTEX
  8
T68SSILL
 62
2
 10
1664.088
 20
-6460.905
 30
-1533.411
 70
    32
  0
VERTEX
  8
T68SSILL
 62
2
 10
1673.016
 20
-6475.993
 30
-1533.533
 70
    32
  0
VERTEX
  8
T68SSILL
 62
2
 10
1652.554
 20
-6492.132
 30
-1533.498
 70
    32
  0
VERTEX
  8
T68SSILL
 62
2
 10
1649.117
 20
-6489.377
 30
-1533.485
 70
    32
  0
VERTEX
  8
T68SSILL
 62
2
 10
1626.889
 20
-6449.452
 30
-1533.241
 70
    32
  0
VERTEX
  8
T68SSILL
 62
2
 10
1623.706
 20
-6446.292
 30
-1533.212
 70
    32
  0
VERTEX
  8
T68SSILL
 62
2
 10
1620.720
 20
-6448.361
 30
-1533.218
 70
    32
  0
VERTEX
  8
T68SSILL
 62
2
 10
1613.791
 20
-6448.484
 30
-1533.201
 70
    32
  0
VERTEX
  8
T68SSILL
 62
2
 10
1604.599
 20
-6438.743
 30
-1533.114
 70
    32
  0
VERTEX
  8
T68SSILL
 62
2
 10
1601.162
 20
-6431.930
 30
-1533.060
 70
    32
  0
VERTEX
  8
T68SSILL
 62
2
 10
1602.027
 20
-6411.779
 30
-1532.930
 70
    32
  0
VERTEX
  8
T68SSILL
 62
2
 10
1579.671
 20
-6412.851
 30
-1532.880
 70
    32
  0
VERTEX
  8
T68SSILL
 62
2
 10
1572.284
 20
-6415.501
 30
-1532.878
 70
    32
  0
VERTEX
  8
T68SSILL
 62
2
 10
1567.028
 20
-6415.060
 30
-1532.862
 70
    32
  0
VERTEX
  8
T68SSILL
 62
2
 10
1549.896
 20
-6401.353
 30
-1532.728
 70
    32
  0
VERTEX
  8
T68SSILL
 62
2
 10
1544.743
 20
-6403.908
 30
-1532.732
 70
    32
  0
VERTEX
  8
T68SSILL
 62
2
 10
1534.356
 20
-6416.423
 30
-1532.787
 70
    32
  0
VERTEX
  8
T68SSILL
 62
2
 10
1527.301
 20
-6419.378
 30
-1532.789
 70
    32
  0
VERTEX
  8
T68SSILL
 62
2
 10
1524.981
 20
-6422.059
 30
-1532.800
 70
    32
  0
VERTEX
  8
T68SSILL
 62
2
 10
1517.413
 20
-6422.208
 30
-1532.782
 70
    32
  0
VERTEX
  8
T68SSILL
 62
2
 10
1492.236
 20
-6450.734
 30
-1532.905
 70
    32
  0
VERTEX
  8
T68SSILL
 62
2
 10
1485.217
 20
-6465.100
 30
-1532.978
 70
    32
  0
VERTEX
  8
T68SSILL
 62
2
 10
1484.810
 20
-6472.980
 30
-1532.986
 70
    32
  0
VERTEX
  8
T68SSILL
 62
2
 10
1493.930
 20
-6509.214
 30
-1533.102
 70
    32
  0
VERTEX
  8
T68SSILL
 62
2
 10
1504.524
 20
-6526.112
 30
-1533.106
 70
    32
  0
VERTEX
  8
T68SSILL
 62
2
 10
1535.876
 20
-6568.623
 30
-1533.248
 70
    32
  0
VERTEX
  8
T68SSILL
 62
2
 10
1540.660
 20
-6569.673
 30
-1533.264
 70
    32
  0
VERTEX
  8
T68SSILL
 62
2
 10
1546.879
 20
-6568.081
 30
-1533.280
 70
    32
  0
VERTEX
  8
T68SSILL
 62
2
 10
1554.182
 20
-6563.633
 30
-1533.296
 70
    32
  0
VERTEX
  8
T68SSILL
 62
2
 10
1559.587
 20
-6572.061
 30
-1533.322
 70
    32
  0
VERTEX
  8
T68SSILL
 62
2
 10
1552.890
 20
-6575.006
 30
-1533.306
 70
    32
  0
VERTEX
  8
T68SSILL
 62
2
 10
1547.022
 20
-6579.898
 30
-1533.294
 70
    32
  0
VERTEX
  8
T68SSILL
 62
2
 10
1546.036
 20
-6582.697
 30
-1533.295
 70
    32
  0
VERTEX
  8
T68SSILL
 62
2
 10
1548.813
 20
-6590.032
 30
-1533.312
 70
    32
  0
VERTEX
  8
T68SSILL
 62
2
 10
1560.182
 20
-6598.910
 30
-1533.355
 70
    32
  0
VERTEX
  8
T68SSILL
 62
2
 10
1566.691
 20
-6606.386
 30
-1533.383
 70
    32
  0
VERTEX
  8
T68SSILL
 62
2
 10
1562.951
 20
-6614.000
 30
-1533.381
 70
    32
  0
VERTEX
  8
T68SSILL
 62
2
 10
1556.903
 20
-6610.688
 30
-1533.360
 70
    32
  0
VERTEX
  8
T68SSILL
 62
2
 10
1552.111
 20
-6615.883
 30
-1533.352
 70
    32
  0
VERTEX
  8
T68SSILL
 62
2
 10
1553.994
 20
-6635.968
 30
-1533.381
 70
    32
  0
VERTEX
  8
T68SSILL
 62
2
 10
1682.791
 20
-6543.324
 30
-1533.647
 70
    32
  0
VERTEX
  8
T68SSILL
 62
2
 10
1684.270
 20
-6536.288
 30
-1533.643
 70
    32
  0
VERTEX
  8
T68SSILL
 62
2
 10
1702.115
 20
-6523.862
 30
-1533.680
 70
    32
  0
VERTEX
  8
T68SSILL
 62
2
 10
1714.004
 20
-6520.703
 30
-1533.711
 70
    32
  0
VERTEX
  8
T68SSILL
 62
2
 10
1769.781
 20
-6480.829
 30
-1533.830
 70
    32
  0
VERTEX
  8
T68SSILL
 62
2
 10
1846.409
 20
-6424.533
 30
-1532.662
 70
    32
  0
VERTEX
  8
T68SSILL
 62
2
 10
1860.024
 20
-6409.023
 30
-1532.391
 70
    32
  0
VERTEX
  8
T68SSILL
 62
2
 10
1877.964
 20
-6396.207
 30
-1532.121
 70
    32
  0
VERTEX
  8
T68SSILL
 62
2
 10
1885.156
 20
-6388.776
 30
-1531.987
 70
    32
  0
VERTEX
  8
T68SSILL
 62
2
 10
1889.350
 20
-6388.023
 30
-1531.950
 70
    32
  0
VERTEX
  8
T68SSILL
 62
2
 10
1924.671
 20
-6362.668
 30
-1531.418
 70
    32
  0
VERTEX
  8
T68SSILL
 62
2
 10
1929.209
 20
-6336.496
 30
-1531.149
 70
    32
  0
VERTEX
  8
T68SSILL
 62
2
 10
1926.883
 20
-6331.886
 30
-1531.157
 70
    32
  0
VERTEX
  8
T68SSILL
 62
2
 10
1925.801
 20
-6313.559
 30
-1531.200
 70
    32
  0
VERTEX
  8
T68SSILL
 62
2
 10
1938.219
 20
-6296.626
 30
-1530.984
 70
    32
  0
VERTEX
  8
T68SSILL
 62
2
 10
1942.222
 20
-6297.613
 30
-1530.973
 70
    32
  0
VERTEX
  8
T68SSILL
 62
2
 10
1941.936
 20
-6313.027
 30
-1531.016
 70
    32
  0
VERTEX
  8
T68SSILL
 62
2
 10
1946.872
 20
-6326.228
 30
-1531.126
 70
    32
  0
VERTEX
  8
T68SSILL
 62
2
 10
1943.538
 20
-6330.245
 30
-1531.138
 70
    32
  0
VERTEX
  8
T68SSILL
 62
2
 10
1942.457
 20
-6334.420
 30
-1531.119
 70
    32
  0
VERTEX
  8
T68SSILL
 62
2
 10
1938.124
 20
-6338.698
 30
-1531.122
 70
    32
  0
VERTEX
  8
T68SSILL
 62
2
 10
1935.305
 20
-6354.790
 30
-1531.255
 70
    32
  0
VERTEX
  8
T68SSILL
 62
2
 10
1964.028
 20
-6334.312
 30
-1531.034
 70
    32
  0
VERTEX
  8
T68SSILL
 62
2
 10
1966.037
 20
-6328.532
 30
-1530.962
 70
    32
  0
VERTEX
  8
T68SSILL
 62
2
 10
1960.797
 20
-6313.183
 30
-1530.944
 70
    32
  0
VERTEX
  8
T68SSILL
 62
2
 10
1968.161
 20
-6305.847
 30
-1530.906
 70
    32
  0
VERTEX
  8
T68SSILL
 62
2
 10
1974.922
 20
-6313.931
 30
-1530.900
 70
    32
  0
VERTEX
  8
T68SSILL
 62
2
 10
1979.742
 20
-6317.032
 30
-1530.890
 70
    32
  0
VERTEX
  8
T68SSILL
 62
2
 10
1989.510
 20
-6310.073
 30
-1530.845
 70
    32
  0
VERTEX
  8
T68SSILL
 62
2
 10
1996.379
 20
-6311.330
 30
-1530.837
 70
    32
  0
VERTEX
  8
T68SSILL
 62
2
 10
2004.755
 20
-6307.475
 30
-1530.824
 70
    32
  0
VERTEX
  8
T68SSILL
 62
2
 10
2009.877
 20
-6309.618
 30
-1530.820
 70
    32
  0
VERTEX
  8
T68SSILL
 62
2
 10
2013.024
 20
-6313.553
 30
-1530.820
 70
    32
  0
VERTEX
  8
T68SSILL
 62
2
 10
2004.201
 20
-6322.967
 30
-1530.838
 70
    32
  0
VERTEX
  8
T68SSILL
 62
2
 10
1992.050
 20
-6330.822
 30
-1530.878
 70
    32
  0
VERTEX
  8
T68SSILL
 62
2
 10
1992.014
 20
-6337.597
 30
-1530.891
 70
    32
  0
VERTEX
  8
T68SSILL
 62
2
 10
2014.424
 20
-6358.878
 30
-1530.861
 70
    32
  0
VERTEX
  8
T68SSILL
 62
2
 10
2018.136
 20
-6361.459
 30
-1530.856
 70
    32
  0
VERTEX
  8
T68SSILL
 62
2
 10
2024.701
 20
-6360.569
 30
-1530.852
 70
    32
  0
VERTEX
  8
T68SSILL
 62
2
 10
2032.005
 20
-6370.527
 30
-1530.878
 70
    32
  0
VERTEX
  8
T68SSILL
 62
2
 10
2026.798
 20
-6373.694
 30
-1530.873
 70
    32
  0
VERTEX
  8
T68SSILL
 62
2
 10
2017.527
 20
-6385.561
 30
-1530.978
 70
    32
  0
VERTEX
  8
T68SSILL
 62
2
 10
2044.457
 20
-6423.009
 30
-1531.320
 70
    32
  0
VERTEX
  8
T68SSILL
 62
2
 10
2037.346
 20
-6427.919
 30
-1531.337
 70
    32
  0
VERTEX
  8
T68SSILL
 62
2
 10
1996.608
 20
-6371.717
 30
-1531.037
 70
    32
  0
VERTEX
  8
T68SSILL
 62
2
 10
1971.195
 20
-6356.796
 30
-1531.036
 70
    32
  0
VERTEX
  8
T68SSILL
 62
2
 10
1958.105
 20
-6362.513
 30
-1531.191
 70
    32
  0
VERTEX
  8
T68SSILL
 62
2
 10
1952.376
 20
-6359.182
 30
-1531.191
 70
    32
  0
VERTEX
  8
T68SSILL
 62
2
 10
1923.875
 20
-6379.827
 30
-1531.622
 70
    32
  0
VERTEX
  8
T68SSILL
 62
2
 10
1937.644
 20
-6403.646
 30
-1531.804
 70
    32
  0
VERTEX
  8
T68SSILL
 62
2
 10
1943.608
 20
-6419.887
 30
-1531.868
 70
    32
  0
VERTEX
  8
T68SSILL
 62
2
 10
1938.782
 20
-6435.865
 30
-1531.997
 70
    32
  0
VERTEX
  8
T68SSILL
 62
2
 10
1934.026
 20
-6439.685
 30
-1532.063
 70
    32
  0
VERTEX
  8
T68SSILL
 62
2
 10
1922.791
 20
-6442.192
 30
-1532.184
 70
    32
  0
VERTEX
  8
T68SSILL
 62
2
 10
1918.560
 20
-6449.721
 30
-1532.264
 70
    32
  0
VERTEX
  8
T68SSILL
 62
2
 10
1921.269
 20
-6459.852
 30
-1532.290
 70
    32
  0
VERTEX
  8
T68SSILL
 62
2
 10
1914.053
 20
-6464.299
 30
-1532.382
 70
    32
  0
VERTEX
  8
T68SSILL
 62
2
 10
1910.038
 20
-6455.070
 30
-1532.373
 70
    32
  0
VERTEX
  8
T68SSILL
 62
2
 10
1904.672
 20
-6451.489
 30
-1532.407
 70
    32
  0
VERTEX
  8
T68SSILL
 62
2
 10
1899.033
 20
-6428.271
 30
-1532.341
 70
    32
  0
VERTEX
  8
T68SSILL
 62
2
 10
1892.145
 20
-6424.348
 30
-1532.351
 70
    32
  0
VERTEX
  8
T68SSILL
 62
2
 10
1882.339
 20
-6430.476
 30
-1532.488
 70
    32
  0
VERTEX
  8
T68SSILL
 62
2
 10
1874.041
 20
-6430.098
 30
-1532.540
 70
    32
  0
VERTEX
  8
T68SSILL
 62
2
 10
1867.751
 20
-6420.833
 30
-1532.475
 70
    32
  0
VERTEX
  8
T68SSILL
 62
2
 10
1723.390
 20
-6524.964
 30
-1533.767
 70
    32
  0
VERTEX
  8
T68SSILL
 62
2
 10
1733.414
 20
-6541.352
 30
-1534.103
 70
    32
  0
VERTEX
  8
T68SSILL
 62
2
 10
1727.690
 20
-6545.196
 30
-1534.083
 70
    32
  0
VERTEX
  8
T68SSILL
 62
2
 10
1715.238
 20
-6530.270
 30
-1533.736
 70
    32
  0
VERTEX
  8
T68SSILL
 62
2
 10
1697.768
 20
-6543.082
 30
-1533.691
 70
    32
  0
VERTEX
  8
T68SSILL
 62
2
 10
1701.791
 20
-6552.334
 30
-1533.858
 70
    32
  0
VERTEX
  8
T68SSILL
 62
2
 10
1712.816
 20
-6568.460
 30
-1534.203
 70
    32
  0
VERTEX
  8
T68SSILL
 62
2
 10
1706.919
 20
-6572.209
 30
-1534.180
 70
    32
  0
VERTEX
  8
T68SSILL
 62
2
 10
1695.207
 20
-6556.020
 30
-1533.825
 70
    32
  0
VERTEX
  8
T68SSILL
 62
2
 10
1687.310
 20
-6549.871
 30
-1533.668
 70
    32
  0
VERTEX
  8
T68SSILL
 62
2
 10
1631.235
 20
-6590.622
 30
-1533.553
 70
    32
  0
VERTEX
  8
T68SSILL
 62
2
 10
1635.190
 20
-6592.618
 30
-1533.567
 70
    32
  0
VERTEX
  8
T68SSILL
 62
2
 10
1648.760
 20
-6594.850
 30
-1533.761
 70
    32
  0
VERTEX
  8
T68SSILL
 62
2
 10
1660.383
 20
-6594.882
 30
-1533.904
 70
    32
  0
VERTEX
  8
T68SSILL
 62
2
 10
1664.449
 20
-6597.660
 30
-1533.990
 70
    32
  0
VERTEX
  8
T68SSILL
 62
2
 10
1664.931
 20
-6604.738
 30
-1534.088
 70
    32
  0
VERTEX
  8
T68SSILL
 62
2
 10
1810.955
 20
-6821.427
 30
-1535.221
 70
    32
  0
VERTEX
  8
T68SSILL
 62
2
 10
1802.030
 20
-6827.831
 30
-1535.340
 70
    32
  0
VERTEX
  8
T68SSILL
 62
2
 10
1701.256
 20
-6676.651
 30
-1535.113
 70
    32
  0
VERTEX
  8
T68SSILL
 62
2
 10
1696.218
 20
-6672.932
 30
-1535.108
 70
    32
  0
VERTEX
  8
T68SSILL
 62
2
 10
1683.331
 20
-6682.580
 30
-1535.200
 70
    32
  0
VERTEX
  8
T68SSILL
 62
2
 10
1678.676
 20
-6681.283
 30
-1535.207
 70
    32
  0
VERTEX
  8
T68SSILL
 62
2
 10
1676.371
 20
-6678.255
 30
-1535.185
 70
    32
  0
VERTEX
  8
T68SSILL
 62
2
 10
1687.424
 20
-6656.770
 30
-1535.041
 70
    32
  0
VERTEX
  8
T68SSILL
 62
2
 10
1656.978
 20
-6611.732
 30
-1534.082
 70
    32
  0
VERTEX
  8
T68SSILL
 62
2
 10
1645.057
 20
-6605.355
 30
-1533.852
 70
    32
  0
VERTEX
  8
T68SSILL
 62
2
 10
1634.721
 20
-6604.541
 30
-1533.715
 70
    32
  0
VERTEX
  8
T68SSILL
 62
2
 10
1629.525
 20
-6606.195
 30
-1533.673
 70
    32
  0
VERTEX
  8
T68SSILL
 62
2
 10
1621.372
 20
-6603.875
 30
-1533.543
 70
    32
  0
VERTEX
  8
T68SSILL
 62
2
 10
1609.076
 20
-6606.134
 30
-1533.507
 70
    32
  0
VERTEX
  8
T68SSILL
 62
2
 10
1556.373
 20
-6644.557
 30
-1533.398
 70
    32
  0
VERTEX
  8
T68SSILL
 62
2
 10
1556.728
 20
-6666.462
 30
-1533.564
 70
    32
  0
VERTEX
  8
T68SSILL
 62
2
 10
1546.902
 20
-6672.794
 30
-1533.648
 70
    32
  0
VERTEX
  8
T68SSILL
 62
2
 10
1544.818
 20
-6652.910
 30
-1533.455
 70
    32
  0
VERTEX
  8
T68SSILL
 62
2
 10
1488.409
 20
-6693.192
 30
-1534.978
 70
    32
  0
VERTEX
  8
T68SSILL
 62
2
 10
1477.848
 20
-6710.257
 30
-1535.393
 70
    32
  0
VERTEX
  8
T68SSILL
 62
2
 10
1474.768
 20
-6727.420
 30
-1535.674
 70
    32
  0
VERTEX
  8
T68SSILL
 62
2
 10
1476.945
 20
-6742.243
 30
-1535.829
 70
    32
  0
VERTEX
  8
T68SSILL
 62
2
 10
1681.324
 20
-7169.856
 30
-1537.871
 70
    32
  0
VERTEX
  8
T68SSILL
 62
2
 10
1683.688
 20
-7162.626
 30
-1537.825
 70
    32
  0
VERTEX
  8
T68SSILL
 62
2
 10
1690.839
 20
-7153.660
 30
-1537.754
 70
    32
  0
VERTEX
  8
T68SSILL
 62
2
 10
1751.794
 20
-7108.027
 30
-1537.272
 70
    32
  0
VERTEX
  8
T68SSILL
 62
2
 10
1735.857
 20
-7060.363
 30
-1537.107
 70
    32
  0
VERTEX
  8
T68SSILL
 62
2
 10
1719.098
 20
-7060.908
 30
-1537.161
 70
    32
  0
VERTEX
  8
T68SSILL
 62
2
 10
1713.233
 20
-7057.413
 30
-1537.160
 70
    32
  0
VERTEX
  8
T68SSILL
 62
2
 10
1708.534
 20
-7052.174
 30
-1537.145
 70
    32
  0
VERTEX
  8
T68SSILL
 62
2
 10
1709.562
 20
-7042.014
 30
-1537.087
 70
    32
  0
VERTEX
  8
T68SSILL
 62
2
 10
1720.378
 20
-7031.857
 30
-1536.998
 70
    32
  0
VERTEX
  8
T68SSILL
 62
2
 10
1725.238
 20
-7024.860
 30
-1536.945
 70
    32
  0
VERTEX
  8
T68SSILL
 62
2
 10
1700.810
 20
-6951.493
 30
-1536.618
 70
    32
  0
VERTEX
  8
T68SSILL
 62
2
 10
1696.175
 20
-6940.152
 30
-1536.570
 70
    32
  0
VERTEX
  8
T68SSILL
 62
2
 10
1691.251
 20
-6937.326
 30
-1536.569
 70
    32
  0
VERTEX
  8
T68SSILL
 62
2
 10
1680.559
 20
-6903.635
 30
-1536.417
 70
    32
  0
VERTEX
  8
T68SSILL
 62
2
 10
1679.959
 20
-6892.178
 30
-1536.357
 70
    32
  0
VERTEX
  8
T68SSILL
 62
2
 10
1690.866
 20
-6889.262
 30
-1536.308
 70
    32
  0
VERTEX
  8
T68SSILL
 62
2
 10
1719.061
 20
-6969.011
 30
-1536.658
 70
    32
  0
VERTEX
  8
T68SSILL
 62
2
 10
1724.181
 20
-6970.817
 30
-1536.653
 70
    32
  0
VERTEX
  8
T68SSILL
 62
2
 10
1731.690
 20
-6952.730
 30
-1536.531
 70
    32
  0
VERTEX
  8
T68SSILL
 62
2
 10
1722.352
 20
-6937.846
 30
-1536.478
 70
    32
  0
VERTEX
  8
T68SSILL
 62
2
 10
1712.217
 20
-6934.434
 30
-1536.490
 70
    32
  0
VERTEX
  8
T68SSILL
 62
2
 10
1709.346
 20
-6928.984
 30
-1536.469
 70
    32
  0
VERTEX
  8
T68SSILL
 62
2
 10
1710.250
 20
-6919.832
 30
-1536.416
 70
    32
  0
VERTEX
  8
T68SSILL
 62
2
 10
1720.856
 20
-6912.504
 30
-1536.344
 70
    32
  0
VERTEX
  8
T68SSILL
 62
2
 10
1727.908
 20
-6915.415
 30
-1536.339
 70
    32
  0
VERTEX
  8
T68SSILL
 62
2
 10
1740.495
 20
-6924.165
 30
-1536.348
 70
    32
  0
VERTEX
  8
T68SSILL
 62
2
 10
1749.586
 20
-6925.515
 30
-1536.328
 70
    32
  0
VERTEX
  8
T68SSILL
 62
2
 10
1755.913
 20
-6924.601
 30
-1536.284
 70
    32
  0
VERTEX
  8
T68SSILL
 62
2
 10
1760.705
 20
-6921.211
 30
-1536.221
 70
    32
  0
VERTEX
  8
T68SSILL
 62
2
 10
1766.790
 20
-6928.789
 30
-1536.201
 70
    32
  0
VERTEX
  8
T68SSILL
 62
2
 10
1762.155
 20
-6936.656
 30
-1536.287
 70
    32
  0
VERTEX
  8
T68SSILL
 62
2
 10
1767.199
 20
-6954.927
 30
-1536.332
 70
    32
  0
VERTEX
  8
T68SSILL
 62
2
 10
1758.630
 20
-6962.249
 30
-1536.453
 70
    32
  0
VERTEX
  8
T68SSILL
 62
2
 10
1751.810
 20
-6965.136
 30
-1536.533
 70
    32
  0
VERTEX
  8
T68SSILL
 62
2
 10
1748.791
 20
-6962.599
 30
-1536.533
 70
    32
  0
VERTEX
  8
T68SSILL
 62
2
 10
1738.839
 20
-6961.086
 30
-1536.555
 70
    32
  0
VERTEX
  8
T68SSILL
 62
2
 10
1722.967
 20
-6987.481
 30
-1536.748
 70
    32
  0
VERTEX
  8
T68SSILL
 62
2
 10
1726.709
 20
-6999.722
 30
-1536.803
 70
    32
  0
VERTEX
  8
T68SSILL
 62
2
 10
1729.685
 20
-7003.036
 30
-1536.812
 70
    32
  0
VERTEX
  8
T68SSILL
 62
2
 10
1735.761
 20
-7004.475
 30
-1536.802
 70
    32
  0
VERTEX
  8
T68SSILL
 62
2
 10
1741.226
 20
-7001.219
 30
-1536.768
 70
    32
  0
VERTEX
  8
T68SSILL
 62
2
 10
1791.166
 20
-6923.818
 30
-1535.941
 70
    32
  0
VERTEX
  8
T68SSILL
 62
2
 10
1801.339
 20
-6930.092
 30
-1535.875
 70
    32
  0
VERTEX
  8
T68SSILL
 62
2
 10
1767.738
 20
-6978.414
 30
-1536.449
 70
    32
  0
VERTEX
  8
T68SSILL
 62
2
 10
1767.687
 20
-6984.385
 30
-1536.480
 70
    32
  0
VERTEX
  8
T68SSILL
 62
2
 10
1770.951
 20
-6986.446
 30
-1536.459
 70
    32
  0
VERTEX
  8
T68SSILL
 62
2
 10
1790.231
 20
-6980.333
 30
-1536.242
 70
    32
  0
VERTEX
  8
T68SSILL
 62
2
 10
1796.299
 20
-6975.788
 30
-1536.160
 70
    32
  0
VERTEX
  8
T68SSILL
 62
2
 10
1801.885
 20
-6984.544
 30
-1536.151
 70
    32
  0
VERTEX
  8
T68SSILL
 62
2
 10
1803.429
 20
-6997.878
 30
-1536.205
 70
    32
  0
VERTEX
  8
T68SSILL
 62
2
 10
1786.509
 20
-7006.757
 30
-1536.414
 70
    32
  0
VERTEX
  8
T68SSILL
 62
2
 10
1777.897
 20
-6997.576
 30
-1536.450
 70
    32
  0
VERTEX
  8
T68SSILL
 62
2
 10
1758.964
 20
-7001.982
 30
-1536.655
 70
    32
  0
VERTEX
  8
T68SSILL
 62
2
 10
1745.396
 20
-7012.492
 30
-1536.817
 70
    32
  0
VERTEX
  8
T68SSILL
 62
2
 10
1737.696
 20
-7025.510
 30
-1536.911
 70
    32
  0
VERTEX
  8
T68SSILL
 62
2
 10
1737.480
 20
-7031.506
 30
-1536.945
 70
    32
  0
VERTEX
  8
T68SSILL
 62
2
 10
1744.221
 20
-7054.303
 30
-1537.049
 70
    32
  0
VERTEX
  8
T68SSILL
 62
2
 10
1747.412
 20
-7056.515
 30
-1537.048
 70
    32
  0
VERTEX
  8
T68SSILL
 62
2
 10
1757.860
 20
-7051.179
 30
-1536.920
 70
    32
  0
VERTEX
  8
T68SSILL
 62
2
 10
1771.864
 20
-7028.802
 30
-1536.669
 70
    32
  0
VERTEX
  8
T68SSILL
 62
2
 10
1777.924
 20
-7027.112
 30
-1536.602
 70
    32
  0
VERTEX
  8
T68SSILL
 62
2
 10
1786.494
 20
-7033.999
 30
-1536.555
 70
    32
  0
VERTEX
  8
T68SSILL
 62
2
 10
1779.579
 20
-7038.603
 30
-1536.645
 70
    32
  0
VERTEX
  8
T68SSILL
 62
2
 10
1760.830
 20
-7068.539
 30
-1536.981
 70
    32
  0
VERTEX
  8
T68SSILL
 62
2
 10
1757.516
 20
-7076.409
 30
-1537.053
 70
    32
  0
VERTEX
  8
T68SSILL
 62
2
 10
1753.986
 20
-7085.382
 30
-1537.134
 70
    32
  0
VERTEX
  8
T68SSILL
 62
2
 10
1759.034
 20
-7102.193
 30
-1537.172
 70
    32
  0
VERTEX
  8
T68SSILL
 62
2
 10
1818.346
 20
-7060.594
 30
-1536.431
 70
    32
  0
VERTEX
  8
T68SSILL
 62
2
 10
1817.913
 20
-7036.896
 30
-1536.276
 70
    32
  0
VERTEX
  8
T68SSILL
 62
2
 10
1820.580
 20
-7021.589
 30
-1536.162
 70
    32
  0
VERTEX
  8
T68SSILL
 62
2
 10
1816.861
 20
-7001.224
 30
-1536.093
 70
    32
  0
VERTEX
  8
T68SSILL
 62
2
 10
1822.212
 20
-6994.322
 30
-1536.006
 70
    32
  0
VERTEX
  8
T68SSILL
 62
2
 10
1832.399
 20
-6990.970
 30
-1535.901
 70
    32
  0
VERTEX
  8
T68SSILL
 62
2
 10
1839.380
 20
-6992.332
 30
-1535.875
 70
    32
  0
VERTEX
  8
T68SSILL
 62
2
 10
1847.819
 20
-6996.965
 30
-1535.864
 70
    32
  0
VERTEX
  8
T68SSILL
 62
2
 10
1847.839
 20
-7011.206
 30
-1535.959
 70
    32
  0
VERTEX
  8
T68SSILL
 62
2
 10
1851.945
 20
-7020.460
 30
-1536.000
 70
    32
  0
VERTEX
  8
T68SSILL
 62
2
 10
1854.726
 20
-7023.799
 30
-1536.008
 70
    32
  0
VERTEX
  8
T68SSILL
 62
2
 10
1863.834
 20
-7027.870
 30
-1535.990
 70
    32
  0
VERTEX
  8
T68SSILL
 62
2
 10
1871.191
 20
-7023.133
 30
-1535.922
 70
    32
  0
VERTEX
  8
T68SSILL
 62
2
 10
1872.289
 20
-7017.500
 30
-1535.880
 70
    32
  0
VERTEX
  8
T68SSILL
 62
2
 10
1870.250
 20
-7010.683
 30
-1535.845
 70
    32
  0
VERTEX
  8
T68SSILL
 62
2
 10
1874.466
 20
-7006.992
 30
-1535.799
 70
    32
  0
VERTEX
  8
T68SSILL
 62
2
 10
1879.664
 20
-7004.129
 30
-1535.755
 70
    32
  0
VERTEX
  8
T68SSILL
 62
2
 10
1895.134
 20
-7000.091
 30
-1535.652
 70
    32
  0
VERTEX
  8
T68SSILL
 62
2
 10
1899.693
 20
-7001.806
 30
-1535.640
 70
    32
  0
VERTEX
  8
T68SSILL
 62
2
 10
1951.757
 20
-6966.195
 30
-1535.231
 70
    32
  0
VERTEX
  8
T68SSILL
 62
2
 10
1955.944
 20
-6970.625
 30
-1535.276
 70
    32
  0
VERTEX
  8
T68SSILL
 62
2
 10
1865.518
 20
-7034.645
 30
-1536.027
 70
    32
  0
VERTEX
  8
T68SSILL
 62
2
 10
1864.286
 20
-7045.128
 30
-1536.102
 70
    32
  0
VERTEX
  8
T68SSILL
 62
2
 10
1862.303
 20
-7047.084
 30
-1536.125
 70
    32
  0
VERTEX
  8
T68SSILL
 62
2
 10
1858.577
 20
-7059.310
 30
-1536.224
 70
    32
  0
VERTEX
  8
T68SSILL
 62
2
 10
1845.043
 20
-7071.922
 30
-1536.375
 70
    32
  0
VERTEX
  8
T68SSILL
 62
2
 10
1840.051
 20
-7075.563
 30
-1536.423
 70
    32
  0
VERTEX
  8
T68SSILL
 62
2
 10
1835.088
 20
-7072.087
 30
-1536.425
 70
    32
  0
SEQEND
  8
T68SSILL
  0
POLYLINE
  8
R_SHAFTS_2
 62
8
 66
     1
 70
     9
  0
VERTEX
  8
R_SHAFTS_2
 62
8
 10
-478.481
 20
690.374
 30
4431.830
 70
    32
  0
VERTEX
  8
R_SHAFTS_2
 62
8
 10
-468.481
 20
690.374
 30
4431.830
 70
    32
  0
VERTEX
  8
R_SHAFTS_2
 62
8
 10
-468.481
 20
680.374
 30
4431.830
 70
    32
  0
VERTEX
  8
R_SHAFTS_2
 62
8
 10
-478.481
 20
680.374
 30
4431.830
 70
    32
  0
SEQEND
  8
R_SHAFTS_2
  0
POLYLINE
  8
R_SHAFTS_2
 62
8
 66
     1
 70
     9
  0
VERTEX
  8
R_SHAFTS_2
 62
8
 10
-3716.381
 20
1088.144
 30
5100.370
 70
    32
  0
VERTEX
  8
R_SHAFTS_2
 62
8
 10
-3706.381
 20
1088.144
 30
5100.370
 70
    32
  0
VERTEX
  8
R_SHAFTS_2
 62
8
 10
-3706.381
 20
1078.144
 30
5100.370
 70
    32
  0
VERTEX
  8
R_SHAFTS_2
 62
8
 10
-3716.381
 20
1078.144
 30
5100.370
 70
    32
  0
SEQEND
  8
R_SHAFTS_2
  0
POLYLINE
  8
R_SHAFTS_2
 62
8
 66
     1
 70
     9
  0
VERTEX
  8
R_SHAFTS_2
 62
8
 10
-700.881
 20
-374.686
 30
4127.920
 70
    32
  0
VERTEX
  8
R_SHAFTS_2
 62
8
 10
-690.881
 20
-374.686
 30
4127.920
 70
    32
  0
VERTEX
  8
R_SHAFTS_2
 62
8
 10
-690.881
 20
-384.686
 30
4127.920
 70
    32
  0
VERTEX
  8
R_SHAFTS_2
 62
8
 10
-700.881
 20
-384.686
 30
4127.920
 70
    32
  0
SEQEND
  8
R_SHAFTS_2
  0
POLYLINE
  8
R_SHAFTS_2
 62
8
 66
     1
 70
     9
  0
VERTEX
  8
R_SHAFTS_2
 62
8
 10
-3716.381
 20
1088.144
 30
4935.510
 70
    32
  0
VERTEX
  8
R_SHAFTS_2
 62
8
 10
-3706.381
 20
1088.144
 30
4935.510
 70
    32
  0
VERTEX
  8
R_SHAFTS_2
 62
8
 10
-3706.381
 20
1078.144
 30
4935.510
 70
    32
  0
VERTEX
  8
R_SHAFTS_2
 62
8
 10
-3716.381
 20
1078.144
 30
4935.510
 70
    32
  0
SEQEND
  8
R_SHAFTS_2
  0
LINE
  8
R_SHAFTS_2
 62
8
 10
-3711.340
 20
1078.144
 30
5100.370
 11
-3711.340
 21
1078.144
 31
4935.510
  0
POLYLINE
  8
R_SHAFTS_2
 62
8
 66
     1
 70
     9
  0
VERTEX
  8
R_SHAFTS_2
 62
8
 10
-2666.581
 20
3279.374
 30
5007.580
 70
    32
  0
VERTEX
  8
R_SHAFTS_2
 62
8
 10
-2656.581
 20
3279.374
 30
5007.580
 70
    32
  0
VERTEX
  8
R_SHAFTS_2
 62
8
 10
-2656.581
 20
3269.374
 30
5007.580
 70
    32
  0
VERTEX
  8
R_SHAFTS_2
 62
8
 10
-2666.581
 20
3269.374
 30
5007.580
 70
    32
  0
SEQEND
  8
R_SHAFTS_2
  0
POLYLINE
  8
R_SHAFTS_2
 62
8
 66
     1
 70
     9
  0
VERTEX
  8
R_SHAFTS_2
 62
8
 10
-1307.921
 20
2098.904
 30
5034.280
 70
    32
  0
VERTEX
  8
R_SHAFTS_2
 62
8
 10
-1297.921
 20
2098.904
 30
5034.280
 70
    32
  0
VERTEX
  8
R_SHAFTS_2
 62
8
 10
-1297.921
 20
2088.904
 30
5034.280
 70
    32
  0
VERTEX
  8
R_SHAFTS_2
 62
8
 10
-1307.921
 20
2088.904
 30
5034.280
 70
    32
  0
SEQEND
  8
R_SHAFTS_2
  0
POLYLINE
  8
R_SHAFTS_2
 62
8
 66
     1
 70
     9
  0
VERTEX
  8
R_SHAFTS_2
 62
8
 10
-2666.581
 20
3279.374
 30
4431.830
 70
    32
  0
VERTEX
  8
R_SHAFTS_2
 62
8
 10
-2656.581
 20
3279.374
 30
4431.830
 70
    32
  0
VERTEX
  8
R_SHAFTS_2
 62
8
 10
-2656.581
 20
3269.374
 30
4431.830
 70
    32
  0
VERTEX
  8
R_SHAFTS_2
 62
8
 10
-2666.581
 20
3269.374
 30
4431.830
 70
    32
  0
SEQEND
  8
R_SHAFTS_2
  0
POLYLINE
  8
R_SHAFTS_2
 62
8
 66
     1
 70
     9
  0
VERTEX
  8
R_SHAFTS_2
 62
8
 10
-1307.921
 20
2098.904
 30
4432.910
 70
    32
  0
VERTEX
  8
R_SHAFTS_2
 62
8
 10
-1297.921
 20
2098.904
 30
4432.910
 70
    32
  0
VERTEX
  8
R_SHAFTS_2
 62
8
 10
-1297.921
 20
2088.904
 30
4432.910
 70
    32
  0
VERTEX
  8
R_SHAFTS_2
 62
8
 10
-1307.921
 20
2088.904
 30
4432.910
 70
    32
  0
SEQEND
  8
R_SHAFTS_2
  0
LINE
  8
R_SHAFTS_2
 62
8
 10
-1297.921
 20
2088.904
 30
5034.280
 11
-1297.921
 21
2088.904
 31
4432.910
  0
LINE
  8
R_SHAFTS_2
 62
8
 10
-2656.581
 20
3269.374
 30
5007.580
 11
-2656.581
 21
3269.374
 31
4431.830
  0
POLYLINE
  8
R_SHAFTS_2
 62
8
 66
     1
 70
     9
  0
VERTEX
  8
R_SHAFTS_2
 62
8
 10
-478.481
 20
690.374
 30
5204.360
 70
    32
  0
VERTEX
  8
R_SHAFTS_2
 62
8
 10
-468.481
 20
690.374
 30
5204.360
 70
    32
  0
VERTEX
  8
R_SHAFTS_2
 62
8
 10
-468.481
 20
680.374
 30
5204.360
 70
    32
  0
VERTEX
  8
R_SHAFTS_2
 62
8
 10
-478.481
 20
680.374
 30
5204.360
 70
    32
  0
SEQEND
  8
R_SHAFTS_2
  0
POLYLINE
  8
R_SHAFTS_2
 62
8
 66
     1
 70
     9
  0
VERTEX
  8
R_SHAFTS_2
 62
8
 10
558.659
 20
-1379.056
 30
3525.000
 70
    32
  0
VERTEX
  8
R_SHAFTS_2
 62
8
 10
568.659
 20
-1379.056
 30
3525.000
 70
    32
  0
VERTEX
  8
R_SHAFTS_2
 62
8
 10
568.659
 20
-1389.056
 30
3525.000
 70
    32
  0
VERTEX
  8
R_SHAFTS_2
 62
8
 10
558.659
 20
-1389.056
 30
3525.000
 70
    32
  0
SEQEND
  8
R_SHAFTS_2
  0
POLYLINE
  8
R_SHAFTS_2
 62
8
 66
     1
 70
     9
  0
VERTEX
  8
R_SHAFTS_2
 62
8
 10
-700.881
 20
-374.686
 30
5382.190
 70
    32
  0
VERTEX
  8
R_SHAFTS_2
 62
8
 10
-690.881
 20
-374.686
 30
5382.190
 70
    32
  0
VERTEX
  8
R_SHAFTS_2
 62
8
 10
-690.881
 20
-384.686
 30
5382.190
 70
    32
  0
VERTEX
  8
R_SHAFTS_2
 62
8
 10
-700.881
 20
-384.686
 30
5382.190
 70
    32
  0
SEQEND
  8
R_SHAFTS_2
  0
POLYLINE
  8
R_SHAFTS_2
 62
8
 66
     1
 70
     9
  0
VERTEX
  8
R_SHAFTS_2
 62
8
 10
558.659
 20
-1379.056
 30
4920.300
 70
    32
  0
VERTEX
  8
R_SHAFTS_2
 62
8
 10
568.659
 20
-1379.056
 30
4920.300
 70
    32
  0
VERTEX
  8
R_SHAFTS_2
 62
8
 10
568.659
 20
-1389.056
 30
4920.300
 70
    32
  0
VERTEX
  8
R_SHAFTS_2
 62
8
 10
558.659
 20
-1389.056
 30
4920.300
 70
    32
  0
SEQEND
  8
R_SHAFTS_2
  0
POLYLINE
  8
R_SHAFTS_2
 62
8
 66
     1
 70
     9
  0
VERTEX
  8
R_SHAFTS_2
 62
8
 10
1147.989
 20
-1107.236
 30
5288.860
 70
    32
  0
VERTEX
  8
R_SHAFTS_2
 62
8
 10
1157.989
 20
-1107.236
 30
5288.860
 70
    32
  0
VERTEX
  8
R_SHAFTS_2
 62
8
 10
1157.989
 20
-1117.236
 30
5288.860
 70
    32
  0
VERTEX
  8
R_SHAFTS_2
 62
8
 10
1147.989
 20
-1117.236
 30
5288.860
 70
    32
  0
SEQEND
  8
R_SHAFTS_2
  0
POLYLINE
  8
R_SHAFTS_2
 62
8
 66
     1
 70
     9
  0
VERTEX
  8
R_SHAFTS_2
 62
8
 10
1686.099
 20
-794.496
 30
5312.340
 70
    32
  0
VERTEX
  8
R_SHAFTS_2
 62
8
 10
1696.099
 20
-794.496
 30
5312.340
 70
    32
  0
VERTEX
  8
R_SHAFTS_2
 62
8
 10
1696.099
 20
-804.496
 30
5312.340
 70
    32
  0
VERTEX
  8
R_SHAFTS_2
 62
8
 10
1686.099
 20
-804.496
 30
5312.340
 70
    32
  0
SEQEND
  8
R_SHAFTS_2
  0
POLYLINE
  8
R_SHAFTS_2
 62
8
 66
     1
 70
     9
  0
VERTEX
  8
R_SHAFTS_2
 62
8
 10
1335.159
 20
-2429.116
 30
5129.360
 70
    32
  0
VERTEX
  8
R_SHAFTS_2
 62
8
 10
1345.159
 20
-2429.116
 30
5129.360
 70
    32
  0
VERTEX
  8
R_SHAFTS_2
 62
8
 10
1345.159
 20
-2439.116
 30
5129.360
 70
    32
  0
VERTEX
  8
R_SHAFTS_2
 62
8
 10
1335.159
 20
-2439.116
 30
5129.360
 70
    32
  0
SEQEND
  8
R_SHAFTS_2
  0
POLYLINE
  8
R_SHAFTS_2
 62
8
 66
     1
 70
     9
  0
VERTEX
  8
R_SHAFTS_2
 62
8
 10
1901.149
 20
-2678.226
 30
5255.210
 70
    32
  0
VERTEX
  8
R_SHAFTS_2
 62
8
 10
1911.149
 20
-2678.226
 30
5255.210
 70
    32
  0
VERTEX
  8
R_SHAFTS_2
 62
8
 10
1911.149
 20
-2688.226
 30
5255.210
 70
    32
  0
VERTEX
  8
R_SHAFTS_2
 62
8
 10
1901.149
 20
-2688.226
 30
5255.210
 70
    32
  0
SEQEND
  8
R_SHAFTS_2
  0
POLYLINE
  8
R_SHAFTS_2
 62
8
 66
     1
 70
     9
  0
VERTEX
  8
R_SHAFTS_2
 62
8
 10
2860.979
 20
-3818.296
 30
3227.240
 70
    32
  0
VERTEX
  8
R_SHAFTS_2
 62
8
 10
2870.979
 20
-3818.296
 30
3227.240
 70
    32
  0
VERTEX
  8
R_SHAFTS_2
 62
8
 10
2870.979
 20
-3828.296
 30
3227.240
 70
    32
  0
VERTEX
  8
R_SHAFTS_2
 62
8
 10
2860.979
 20
-3828.296
 30
3227.240
 70
    32
  0
SEQEND
  8
R_SHAFTS_2
  0
POLYLINE
  8
R_SHAFTS_2
 62
8
 66
     1
 70
     9
  0
VERTEX
  8
R_SHAFTS_2
 62
8
 10
1915.569
 20
-5410.906
 30
5132.170
 70
    32
  0
VERTEX
  8
R_SHAFTS_2
 62
8
 10
1925.569
 20
-5410.906
 30
5132.170
 70
    32
  0
VERTEX
  8
R_SHAFTS_2
 62
8
 10
1925.569
 20
-5420.906
 30
5132.170
 70
    32
  0
VERTEX
  8
R_SHAFTS_2
 62
8
 10
1915.569
 20
-5420.906
 30
5132.170
 70
    32
  0
SEQEND
  8
R_SHAFTS_2
  0
POLYLINE
  8
R_SHAFTS_2
 62
8
 66
     1
 70
     9
  0
VERTEX
  8
R_SHAFTS_2
 62
8
 10
3476.969
 20
-5184.066
 30
4936.640
 70
    32
  0
VERTEX
  8
R_SHAFTS_2
 62
8
 10
3486.969
 20
-5184.066
 30
4936.640
 70
    32
  0
VERTEX
  8
R_SHAFTS_2
 62
8
 10
3486.969
 20
-5194.066
 30
4936.640
 70
    32
  0
VERTEX
  8
R_SHAFTS_2
 62
8
 10
3476.969
 20
-5194.066
 30
4936.640
 70
    32
  0
SEQEND
  8
R_SHAFTS_2
  0
POLYLINE
  8
R_SHAFTS_2
 62
8
 66
     1
 70
     9
  0
VERTEX
  8
R_SHAFTS_2
 62
8
 10
2007.309
 20
-6365.696
 30
-1540.860
 70
    32
  0
VERTEX
  8
R_SHAFTS_2
 62
8
 10
2017.309
 20
-6365.696
 30
-1540.860
 70
    32
  0
VERTEX
  8
R_SHAFTS_2
 62
8
 10
2017.309
 20
-6375.696
 30
-1540.860
 70
    32
  0
VERTEX
  8
R_SHAFTS_2
 62
8
 10
2007.309
 20
-6375.696
 30
-1540.860
 70
    32
  0
SEQEND
  8
R_SHAFTS_2
  0
POLYLINE
  8
R_SHAFTS_2
 62
8
 66
     1
 70
     9
  0
VERTEX
  8
R_SHAFTS_2
 62
8
 10
5879.549
 20
-8636.476
 30
5137.000
 70
    32
  0
VERTEX
  8
R_SHAFTS_2
 62
8
 10
5889.549
 20
-8636.476
 30
5137.000
 70
    32
  0
VERTEX
  8
R_SHAFTS_2
 62
8
 10
5889.549
 20
-8646.476
 30
5137.000
 70
    32
  0
VERTEX
  8
R_SHAFTS_2
 62
8
 10
5879.549
 20
-8646.476
 30
5137.000
 70
    32
  0
SEQEND
  8
R_SHAFTS_2
  0
POLYLINE
  8
R_SHAFTS_2
 62
8
 66
     1
 70
     9
  0
VERTEX
  8
R_SHAFTS_2
 62
8
 10
1147.989
 20
-1107.236
 30
3522.340
 70
    32
  0
VERTEX
  8
R_SHAFTS_2
 62
8
 10
1157.989
 20
-1107.236
 30
3522.340
 70
    32
  0
VERTEX
  8
R_SHAFTS_2
 62
8
 10
1157.989
 20
-1117.236
 30
3522.340
 70
    32
  0
VERTEX
  8
R_SHAFTS_2
 62
8
 10
1147.989
 20
-1117.236
 30
3522.340
 70
    32
  0
SEQEND
  8
R_SHAFTS_2
  0
POLYLINE
  8
R_SHAFTS_2
 62
8
 66
     1
 70
     9
  0
VERTEX
  8
R_SHAFTS_2
 62
8
 10
1686.099
 20
-794.496
 30
3674.640
 70
    32
  0
VERTEX
  8
R_SHAFTS_2
 62
8
 10
1696.099
 20
-794.496
 30
3674.640
 70
    32
  0
VERTEX
  8
R_SHAFTS_2
 62
8
 10
1696.099
 20
-804.496
 30
3674.640
 70
    32
  0
VERTEX
  8
R_SHAFTS_2
 62
8
 10
1686.099
 20
-804.496
 30
3674.640
 70
    32
  0
SEQEND
  8
R_SHAFTS_2
  0
POLYLINE
  8
R_SHAFTS_2
 62
8
 66
     1
 70
     9
  0
VERTEX
  8
R_SHAFTS_2
 62
8
 10
1335.159
 20
-2429.116
 30
4927.100
 70
    32
  0
VERTEX
  8
R_SHAFTS_2
 62
8
 10
1345.159
 20
-2429.116
 30
4927.100
 70
    32
  0
VERTEX
  8
R_SHAFTS_2
 62
8
 10
1345.159
 20
-2439.116
 30
4927.100
 70
    32
  0
VERTEX
  8
R_SHAFTS_2
 62
8
 10
1335.159
 20
-2439.116
 30
4927.100
 70
    32
  0
SEQEND
  8
R_SHAFTS_2
  0
POLYLINE
  8
R_SHAFTS_2
 62
8
 66
     1
 70
     9
  0
VERTEX
  8
R_SHAFTS_2
 62
8
 10
1901.149
 20
-2678.226
 30
2022.470
 70
    32
  0
VERTEX
  8
R_SHAFTS_2
 62
8
 10
1911.149
 20
-2678.226
 30
2022.470
 70
    32
  0
VERTEX
  8
R_SHAFTS_2
 62
8
 10
1911.149
 20
-2688.226
 30
2022.470
 70
    32
  0
VERTEX
  8
R_SHAFTS_2
 62
8
 10
1901.149
 20
-2688.226
 30
2022.470
 70
    32
  0
SEQEND
  8
R_SHAFTS_2
  0
POLYLINE
  8
R_SHAFTS_2
 62
8
 66
     1
 70
     9
  0
VERTEX
  8
R_SHAFTS_2
 62
8
 10
2860.979
 20
-3818.296
 30
1722.490
 70
    32
  0
VERTEX
  8
R_SHAFTS_2
 62
8
 10
2870.979
 20
-3818.296
 30
1722.490
 70
    32
  0
VERTEX
  8
R_SHAFTS_2
 62
8
 10
2870.979
 20
-3828.296
 30
1722.490
 70
    32
  0
VERTEX
  8
R_SHAFTS_2
 62
8
 10
2860.979
 20
-3828.296
 30
1722.490
 70
    32
  0
SEQEND
  8
R_SHAFTS_2
  0
POLYLINE
  8
R_SHAFTS_2
 62
8
 66
     1
 70
     9
  0
VERTEX
  8
R_SHAFTS_2
 62
8
 10
3476.969
 20
-5184.066
 30
1123.440
 70
    32
  0
VERTEX
  8
R_SHAFTS_2
 62
8
 10
3486.969
 20
-5184.066
 30
1123.440
 70
    32
  0
VERTEX
  8
R_SHAFTS_2
 62
8
 10
3486.969
 20
-5194.066
 30
1123.440
 70
    32
  0
VERTEX
  8
R_SHAFTS_2
 62
8
 10
3476.969
 20
-5194.066
 30
1123.440
 70
    32
  0
SEQEND
  8
R_SHAFTS_2
  0
POLYLINE
  8
R_SHAFTS_2
 62
8
 66
     1
 70
     9
  0
VERTEX
  8
R_SHAFTS_2
 62
8
 10
1915.569
 20
-5410.906
 30
4430.130
 70
    32
  0
VERTEX
  8
R_SHAFTS_2
 62
8
 10
1925.569
 20
-5410.906
 30
4430.130
 70
    32
  0
VERTEX
  8
R_SHAFTS_2
 62
8
 10
1925.569
 20
-5420.906
 30
4430.130
 70
    32
  0
VERTEX
  8
R_SHAFTS_2
 62
8
 10
1915.569
 20
-5420.906
 30
4430.130
 70
    32
  0
SEQEND
  8
R_SHAFTS_2
  0
POLYLINE
  8
R_SHAFTS_2
 62
8
 66
     1
 70
     9
  0
VERTEX
  8
R_SHAFTS_2
 62
8
 10
2007.309
 20
-6365.696
 30
-2727.190
 70
    32
  0
VERTEX
  8
R_SHAFTS_2
 62
8
 10
2017.309
 20
-6365.696
 30
-2727.190
 70
    32
  0
VERTEX
  8
R_SHAFTS_2
 62
8
 10
2017.309
 20
-6375.696
 30
-2727.190
 70
    32
  0
VERTEX
  8
R_SHAFTS_2
 62
8
 10
2007.309
 20
-6375.696
 30
-2727.190
 70
    32
  0
SEQEND
  8
R_SHAFTS_2
  0
POLYLINE
  8
R_SHAFTS_2
 62
8
 66
     1
 70
     9
  0
VERTEX
  8
R_SHAFTS_2
 62
8
 10
5879.549
 20
-8636.476
 30
-1571.540
 70
    32
  0
VERTEX
  8
R_SHAFTS_2
 62
8
 10
5889.549
 20
-8636.476
 30
-1571.540
 70
    32
  0
VERTEX
  8
R_SHAFTS_2
 62
8
 10
5889.549
 20
-8646.476
 30
-1571.540
 70
    32
  0
VERTEX
  8
R_SHAFTS_2
 62
8
 10
5879.549
 20
-8646.476
 30
-1571.540
 70
    32
  0
SEQEND
  8
R_SHAFTS_2
  0
LINE
  8
R_SHAFTS_2
 62
8
 10
-468.481
 20
680.374
 30
5204.360
 11
-468.481
 21
680.374
 31
4431.830
  0
LINE
  8
R_SHAFTS_2
 62
8
 10
-700.881
 20
-374.686
 30
5382.190
 11
-700.881
 21
-384.686
 31
4127.920
  0
LINE
  8
R_SHAFTS_2
 62
8
 10
558.659
 20
-1389.056
 30
4920.300
 11
558.659
 21
-1389.056
 31
3525.000
  0
LINE
  8
R_SHAFTS_2
 62
8
 10
1147.989
 20
-1107.236
 30
5288.860
 11
1147.989
 21
-1117.236
 31
3522.340
  0
LINE
  8
R_SHAFTS_2
 62
8
 10
1686.099
 20
-794.496
 30
5312.340
 11
1686.099
 21
-804.496
 31
3674.640
  0
LINE
  8
R_SHAFTS_2
 62
8
 10
1335.159
 20
-2439.116
 30
5129.360
 11
1335.159
 21
-2439.116
 31
4927.100
  0
LINE
  8
R_SHAFTS_2
 62
8
 10
1901.149
 20
-2678.226
 30
5255.210
 11
1901.149
 21
-2678.226
 31
2022.470
  0
LINE
  8
R_SHAFTS_2
 62
8
 10
2860.979
 20
-3828.296
 30
3227.240
 11
2860.979
 21
-3818.296
 31
1722.490
  0
LINE
  8
R_SHAFTS_2
 62
8
 10
1915.569
 20
-5410.906
 30
5132.170
 11
1915.569
 21
-5410.906
 31
4430.130
  0
LINE
  8
R_SHAFTS_2
 62
8
 10
3476.969
 20
-5194.066
 30
4936.640
 11
3476.969
 21
-5189.066
 31
1123.440
  0
LINE
  8
R_SHAFTS_2
 62
8
 10
2007.309
 20
-6365.696
 30
-1540.860
 11
2007.309
 21
-6365.696
 31
-2727.190
  0
POLYLINE
  8
R_SHAFTS_2
 62
8
 66
     1
 70
     9
  0
VERTEX
  8
R_SHAFTS_2
 62
8
 10
1686.099
 20
-794.496
 30
5312.340
 70
    32
  0
VERTEX
  8
R_SHAFTS_2
 62
8
 10
1696.099
 20
-794.496
 30
5312.340
 70
    32
  0
VERTEX
  8
R_SHAFTS_2
 62
8
 10
1696.099
 20
-804.496
 30
5312.340
 70
    32
  0
VERTEX
  8
R_SHAFTS_2
 62
8
 10
1686.099
 20
-794.909
 30
5244.801
 70
    32
  0
SEQEND
  8
R_SHAFTS_2
  0
POLYLINE
  8
R_SHAFTS_2
 62
8
 66
     1
 70
     9
  0
VERTEX
  8
R_SHAFTS_2
 62
8
 10
4834.380
 20
-6367.750
 30
1126.470
 70
    32
  0
VERTEX
  8
R_SHAFTS_2
 62
8
 10
4844.380
 20
-6367.750
 30
1126.470
 70
    32
  0
VERTEX
  8
R_SHAFTS_2
 62
8
 10
4844.380
 20
-6377.750
 30
1126.470
 70
    32
  0
VERTEX
  8
R_SHAFTS_2
 62
8
 10
4834.380
 20
-6377.750
 30
1126.470
 70
    32
  0
SEQEND
  8
R_SHAFTS_2
  0
POLYLINE
  8
R_SHAFTS_2
 62
8
 66
     1
 70
     9
  0
VERTEX
  8
R_SHAFTS_2
 62
8
 10
4834.380
 20
-6367.750
 30
226.130
 70
    32
  0
VERTEX
  8
R_SHAFTS_2
 62
8
 10
4844.380
 20
-6367.750
 30
226.130
 70
    32
  0
VERTEX
  8
R_SHAFTS_2
 62
8
 10
4844.380
 20
-6377.750
 30
226.130
 70
    32
  0
VERTEX
  8
R_SHAFTS_2
 62
8
 10
4834.380
 20
-6377.750
 30
226.130
 70
    32
  0
SEQEND
  8
R_SHAFTS_2
  0
LINE
  8
R_SHAFTS_2
 62
8
 10
4834.380
 20
-6377.750
 30
1126.470
 11
4834.380
 21
-6377.750
 31
226.130
  0
LINE
  8
R_SHAFTS_2
 62
8
 10
5879.549
 20
-8636.476
 30
5137.000
 11
5879.549
 21
-8636.476
 31
-1571.540
  0
TEXT
  8
R_SHAFTS_2
 62
1
 10
-3686.775
 20
1100.846
 30
5023.474
 40
0.100
  1
HIDDEN FORTUNE
 50
90.000
 41
 1.0 
  0
TEXT
  8
R_SHAFTS_2
 62
1
 10
-2646.317
 20
3286.313
 30
4684.308
 40
0.100
  1
COLUMBUS
 50
90.000
 41
 1.0 
  0
TEXT
  8
R_SHAFTS_2
 62
1
 10
-1289.325
 20
2104.285
 30
4718.055
 40
0.100
  1
GOLDEN GATE
 50
90.000
 41
 1.0 
  0
TEXT
  8
R_SHAFTS_2
 62
1
 10
-437.381
 20
657.720
 30
4801.051
 40
0.100
  1
OLD BRIG
 50
90.000
 41
 1.0 
  0
TEXT
  8
R_SHAFTS_2
 62
1
 10
-684.973
 20
-360.193
 30
4697.205
 40
0.100
  1
HIGHLAND
 50
90.000
 41
 1.0 
  0
TEXT
  8
R_SHAFTS_2
 62
1
 10
589.116
 20
-1391.339
 30
4229.343
 40
0.100
  1
STAR
 50
90.000
 41
 1.0 
  0
TEXT
  8
R_SHAFTS_2
 62
1
 10
1177.126
 20
-1114.364
 30
4440.533
 40
0.100
  1
B&M
 50
90.000
 41
 1.0 
  0
TEXT
  8
R_SHAFTS_2
 62
1
 10
1359.568
 20
-2445.945
 30
5021.168
 40
0.100
  1
PIERCE
 50
90.000
 41
 1.0 
  0
TEXT
  8
R_SHAFTS_2
 62
1
 10
1926.495
 20
-2678.590
 30
3469.752
 40
0.100
  1
ELLISON
 50
90.000
 41
 1.0 
  0
TEXT
  8
R_SHAFTS_2
 62
1
 10
2927.776
 20
-3877.189
 30
2456.247
 40
0.100
  1
MILLIKEN
 50
90.000
 41
 1.0 
  0
TEXT
  8
R_SHAFTS_2
 62
1
 10
1949.046
 20
-5433.893
 30
4750.731
 40
0.100
  1
MILNARICH
 50
90.000
 41
 1.0 
  0
TEXT
  8
R_SHAFTS_2
 62
1
 10
3551.182
 20
-5227.224
 30
2980.752
 40
0.100
  1
ORO HONDO
 50
90.000
 41
 1.0 
  0
TEXT
  8
R_SHAFTS_2
 62
1
 10
2017.349
 20
-6357.658
 30
-2173.886
 40
0.100
  1
7 SHAFT
 50
90.000
 41
 1.0 
  0
TEXT
  8
R_SHAFTS_2
 62
1
 10
5906.133
 20
-8623.541
 30
2312.731
 40
0.100
  1
5 SHAFT
 50
90.000
 41
 1.0 
  0
TEXT
  8
R_SHAFTS_2
 62
1
 10
1697.299
 20
-799.316
 30
4453.134
 40
0.100
  1
B&M#2
 50
90.000
 41
 1.0 
  0
TEXT
  8
R_SHAFTS_2
 62
1
 10
4839.607
 20
-6346.803
 30
607.064
 40
0.100
  1
3 WINZE
 50
90.000
 41
 1.0 
  0
TEXT
  8
R_SHAFTS_2
 62
1
 10
2168.342
 20
-2426.315
 30
4107.000
 40
0.100
  1
#2 AIR RAISE - APPROX LOCATION
 50
90.000
 41
 1.0 
  0
POLYLINE
  8
R_SHAFTS_1
 62
6
 66
     1
 70
     9
  0
VERTEX
  8
R_SHAFTS_1
 62
6
 10
2130.839
 20
-4604.504
 30
5355.000
 70
    32
  0
VERTEX
  8
R_SHAFTS_1
 62
6
 10
2138.228
 20
-4604.504
 30
5355.000
 70
    32
  0
VERTEX
  8
R_SHAFTS_1
 62
6
 10
2137.839
 20
-4627.259
 30
5355.000
 70
    32
  0
VERTEX
  8
R_SHAFTS_1
 62
6
 10
2130.256
 20
-4627.259
 30
5355.000
 70
    32
  0
SEQEND
  8
R_SHAFTS_1
  0
POLYLINE
  8
R_SHAFTS_1
 62
6
 66
     1
 70
     9
  0
VERTEX
  8
R_SHAFTS_1
 62
6
 10
3992.817
 20
-2531.732
 30
5310.000
 70
    32
  0
VERTEX
  8
R_SHAFTS_1
 62
6
 10
3985.496
 20
-2520.607
 30
5310.000
 70
    32
  0
VERTEX
  8
R_SHAFTS_1
 62
6
 10
3988.791
 20
-2518.406
 30
5310.000
 70
    32
  0
VERTEX
  8
R_SHAFTS_1
 62
6
 10
3996.112
 20
-2529.409
 30
5310.000
 70
    32
  0
SEQEND
  8
R_SHAFTS_1
  0
POLYLINE
  8
R_SHAFTS_1
 62
6
 66
     1
 70
     9
  0
VERTEX
  8
R_SHAFTS_1
 62
6
 10
5884.445
 20
-8451.304
 30
527.000
 70
    32
  0
VERTEX
  8
R_SHAFTS_1
 62
6
 10
5875.030
 20
-8437.336
 30
527.000
 70
    32
  0
VERTEX
  8
R_SHAFTS_1
 62
6
 10
5881.621
 20
-8433.372
 30
527.000
 70
    32
  0
VERTEX
  8
R_SHAFTS_1
 62
6
 10
5891.035
 20
-8446.774
 30
527.000
 70
    32
  0
SEQEND
  8
R_SHAFTS_1
  0
POLYLINE
  8
R_SHAFTS_1
 62
6
 66
     1
 70
     9
  0
VERTEX
  8
R_SHAFTS_1
 62
6
 10
2150.594
 20
-4783.658
 30
699.000
 70
    32
  0
VERTEX
  8
R_SHAFTS_1
 62
6
 10
2156.312
 20
-4785.505
 30
699.000
 70
    32
  0
VERTEX
  8
R_SHAFTS_1
 62
6
 10
2151.332
 20
-4804.349
 30
699.000
 70
    32
  0
VERTEX
  8
R_SHAFTS_1
 62
6
 10
2144.692
 20
-4802.316
 30
699.000
 70
    32
  0
SEQEND
  8
R_SHAFTS_1
  0
POLYLINE
  8
R_SHAFTS_1
 62
6
 66
     1
 70
     9
  0
VERTEX
  8
R_SHAFTS_1
 62
6
 10
3992.817
 20
-2531.732
 30
376.000
 70
    32
  0
VERTEX
  8
R_SHAFTS_1
 62
6
 10
3985.496
 20
-2520.607
 30
376.000
 70
    32
  0
VERTEX
  8
R_SHAFTS_1
 62
6
 10
3988.791
 20
-2518.406
 30
376.000
 70
    32
  0
VERTEX
  8
R_SHAFTS_1
 62
6
 10
3996.112
 20
-2529.409
 30
376.000
 70
    32
  0
SEQEND
  8
R_SHAFTS_1
  0
POLYLINE
  8
R_SHAFTS_1
 62
6
 66
     1
 70
     9
  0
VERTEX
  8
R_SHAFTS_1
 62
6
 10
5884.445
 20
-8451.304
 30
-2314.000
 70
    32
  0
VERTEX
  8
R_SHAFTS_1
 62
6
 10
5875.030
 20
-8437.336
 30
-2314.000
 70
    32
  0
VERTEX
  8
R_SHAFTS_1
 62
6
 10
5881.621
 20
-8433.372
 30
-2314.000
 70
    32
  0
VERTEX
  8
R_SHAFTS_1
 62
6
 10
5891.035
 20
-8446.774
 30
-2314.000
 70
    32
  0
SEQEND
  8
R_SHAFTS_1
  0
POLYLINE
  8
R_SHAFTS_1
 62
6
 66
     1
 70
     9
  0
VERTEX
  8
R_SHAFTS_1
 62
6
 10
2130.839
 20
-4604.504
 30
228.000
 70
    32
  0
VERTEX
  8
R_SHAFTS_1
 62
6
 10
2138.228
 20
-4604.504
 30
228.000
 70
    32
  0
VERTEX
  8
R_SHAFTS_1
 62
6
 10
2137.839
 20
-4627.259
 30
228.000
 70
    32
  0
VERTEX
  8
R_SHAFTS_1
 62
6
 10
2130.256
 20
-4627.259
 30
228.000
 70
    32
  0
SEQEND
  8
R_SHAFTS_1
  0
POLYLINE
  8
R_SHAFTS_1
 62
6
 66
     1
 70
     9
  0
VERTEX
  8
R_SHAFTS_1
 62
6
 10
2150.594
 20
-4783.658
 30
-2960.000
 70
    32
  0
VERTEX
  8
R_SHAFTS_1
 62
6
 10
2156.312
 20
-4785.505
 30
-2960.000
 70
    32
  0
VERTEX
  8
R_SHAFTS_1
 62
6
 10
2151.332
 20
-4804.349
 30
-2960.000
 70
    32
  0
VERTEX
  8
R_SHAFTS_1
 62
6
 10
2144.692
 20
-4802.316
 30
-2960.000
 70
    32
  0
SEQEND
  8
R_SHAFTS_1
  0
LINE
  8
R_SHAFTS_1
 62
13
 10
5887.740
 20
-8449.039
 30
527.000
 11
5887.740
 21
-8449.039
 31
-2314.000
  0
LINE
  8
R_SHAFTS_1
 62
13
 10
2147.643
 20
-4792.987
 30
699.000
 11
2147.643
 21
-4792.987
 31
-2960.000
  0
LINE
  8
R_SHAFTS_1
 62
13
 10
2130.547
 20
-4615.882
 30
5355.000
 11
2130.547
 21
-4615.882
 31
228.000
  0
LINE
  8
R_SHAFTS_1
 62
13
 10
3994.465
 20
-2530.570
 30
5310.000
 11
3994.465
 21
-2530.570
 31
376.000
  0
TEXT
  8
R_SHAFTS_1
 62
1
 10
2169.321
 20
-4771.133
 30
-958.959
 40
4.101
  1
6-SHAFT
 41
 1.0 
  0
TEXT
  8
R_SHAFTS_1
 62
1
 10
2153.751
 20
-4589.779
 30
2937.728
 40
4.101
  1
ROSS
 50
88.532
 41
 1.0 
  0
TEXT
  8
R_SHAFTS_1
 62
1
 10
4010.258
 20
-2505.121
 30
2898.139
 40
4.101
  1
YATES
 41
 1.0 
  0
TEXT
  8
R_SHAFTS_1
 62
1
 10
5881.528
 20
-8420.618
 30
-792.374
 40
4.101
  1
4-WINZE
 41
 1.0 
  0
TEXT
  8
T68SSILL
 62
3
 10
1574.044
 20
-6670.834
 30
-1533.609
 40
8.202
  1
U
 41
 1.0 
  0
TEXT
  8
T68SSILL
 62
3
 10
1660.631
 20
-6665.996
 30
-1530.852
 40
8.202
  1
U
 41
 1.0 
  0
TEXT
  8
T68SSILL
 62
3
 10
1704.670
 20
-6731.603
 30
-1532.407
 40
8.202
  1
U
 41
 1.0 
  0
TEXT
  8
T68SSILL
 62
3
 10
1578.971
 20
-6337.241
 30
-1535.285
 40
8.202
  1
D
 41
 1.0 
  0
TEXT
  8
T68SSILL
 62
2
 10
1990.339
 20
-5863.668
 30
-1546.112
 40
0.000
  1
6800
 41
 1.0 
  0
TEXT
  8
T68SSILL
 62
2
 10
6827.202
 20
-10132.717
 30
-1555.697
 40
0.000
  1
6800
 41
 1.0 
  0
TEXT
  8
T68SSILL
 62
3
 10
7548.804
 20
-8401.054
 30
-1553.812
 40
8.202
  1
U
 41
 1.0 
  0
TEXT
  8
T68SSILL
 62
3
 10
7459.026
 20
-8853.021
 30
-1553.743
 40
8.202
  1
U
 41
 1.0 
  0
TEXT
  8
T68SSILL
 62
3
 10
7486.050
 20
-8566.958
 30
-1558.987
 40
8.202
  1
D
 41
 1.0 
  0
POLYLINE
  8
T68SSILL
 62
3
 66
     1
 70
     9
  0
VERTEX
  8
T68SSILL
 62
3
 10
1546.902
 20
-6672.794
 30
-1533.648
 70
    32
  0
VERTEX
  8
T68SSILL
 62
3
 10
1548.599
 20
-6696.515
 30
-1527.635
 70
    32
  0
VERTEX
  8
T68SSILL
 62
3
 10
1558.784
 20
-6695.697
 30
-1527.560
 70
    32
  0
VERTEX
  8
T68SSILL
 62
3
 10
1557.421
 20
-6675.713
 30
-1532.190
 70
    32
  0
VERTEX
  8
T68SSILL
 62
3
 10
1561.902
 20
-6666.546
 30
-1533.609
 70
    32
  0
VERTEX
  8
T68SSILL
 62
3
 10
1578.344
 20
-6645.130
 30
-1533.609
 70
    32
  0
VERTEX
  8
T68SSILL
 62
3
 10
1570.413
 20
-6639.040
 30
-1533.609
 70
    32
  0
VERTEX
  8
T68SSILL
 62
3
 10
1559.451
 20
-6653.317
 30
-1533.609
 70
    32
  0
VERTEX
  8
T68SSILL
 62
3
 10
1556.530
 20
-6651.075
 30
-1533.609
 70
    32
  0
VERTEX
  8
T68SSILL
 62
3
 10
1556.728
 20
-6666.462
 30
-1533.564
 70
    32
  0
SEQEND
  8
T68SSILL
  0
POLYLINE
  8
T68SSILL
 62
3
 66
     1
 70
     9
  0
VERTEX
  8
T68SSILL
 62
3
 10
1682.849
 20
-6665.662
 30
-1535.101
 70
    32
  0
VERTEX
  8
T68SSILL
 62
3
 10
1656.272
 20
-6681.818
 30
-1530.394
 70
    32
  0
VERTEX
  8
T68SSILL
 62
3
 10
1660.988
 20
-6690.655
 30
-1530.852
 70
    32
  0
VERTEX
  8
T68SSILL
 62
3
 10
1676.371
 20
-6678.255
 30
-1535.185
 70
    32
  0
VERTEX
  8
T68SSILL
 62
3
 10
1678.676
 20
-6681.283
 30
-1535.207
 70
    32
  0
SEQEND
  8
T68SSILL
  0
POLYLINE
  8
T68SSILL
 62
3
 66
     1
 70
     9
  0
VERTEX
  8
T68SSILL
 62
3
 10
1713.363
 20
-6694.815
 30
-1535.141
 70
    32
  0
VERTEX
  8
T68SSILL
 62
3
 10
1713.112
 20
-6699.179
 30
-1533.768
 70
    32
  0
VERTEX
  8
T68SSILL
 62
3
 10
1707.884
 20
-6701.582
 30
-1532.407
 70
    32
  0
VERTEX
  8
T68SSILL
 62
3
 10
1693.626
 20
-6703.784
 30
-1530.952
 70
    32
  0
VERTEX
  8
T68SSILL
 62
3
 10
1688.707
 20
-6715.119
 30
-1530.405
 70
    32
  0
VERTEX
  8
T68SSILL
 62
3
 10
1715.925
 20
-6714.019
 30
-1533.100
 70
    32
  0
VERTEX
  8
T68SSILL
 62
3
 10
1716.539
 20
-6711.234
 30
-1533.477
 70
    32
  0
VERTEX
  8
T68SSILL
 62
3
 10
1724.323
 20
-6711.256
 30
-1535.165
 70
    32
  0
SEQEND
  8
T68SSILL
  0
POLYLINE
  8
T68SSILL
 62
3
 66
     1
 70
     9
  0
VERTEX
  8
T68SSILL
 62
3
 10
1545.668
 20
-6376.476
 30
-1532.554
 70
    32
  0
VERTEX
  8
T68SSILL
 62
3
 10
1560.692
 20
-6342.553
 30
-1535.473
 70
    32
  0
VERTEX
  8
T68SSILL
 62
3
 10
1558.956
 20
-6322.219
 30
-1539.236
 70
    32
  0
VERTEX
  8
T68SSILL
 62
3
 10
1569.616
 20
-6321.401
 30
-1539.218
 70
    32
  0
VERTEX
  8
T68SSILL
 62
3
 10
1571.419
 20
-6342.656
 30
-1535.285
 70
    32
  0
VERTEX
  8
T68SSILL
 62
3
 10
1578.795
 20
-6355.151
 30
-1532.743
 70
    32
  0
VERTEX
  8
T68SSILL
 62
3
 10
1570.243
 20
-6350.645
 30
-1532.676
 70
    32
  0
SEQEND
  8
T68SSILL
  0
POLYLINE
  8
T68SSILL
 62
3
 66
     1
 70
     9
  0
VERTEX
  8
T68SSILL
 62
3
 10
7578.113
 20
-8367.080
 30
-1556.457
 70
    32
  0
VERTEX
  8
T68SSILL
 62
3
 10
7568.065
 20
-8356.572
 30
-1553.846
 70
    32
  0
VERTEX
  8
T68SSILL
 62
3
 10
7563.344
 20
-8364.043
 30
-1553.812
 70
    32
  0
VERTEX
  8
T68SSILL
 62
3
 10
7576.102
 20
-8377.562
 30
-1556.481
 70
    32
  0
SEQEND
  8
T68SSILL
  0
POLYLINE
  8
T68SSILL
 62
3
 66
     1
 70
     9
  0
VERTEX
  8
T68SSILL
 62
3
 10
7470.569
 20
-8801.948
 30
-1557.020
 70
    32
  0
VERTEX
  8
T68SSILL
 62
3
 10
7472.055
 20
-8805.366
 30
-1555.785
 70
    32
  0
VERTEX
  8
T68SSILL
 62
3
 10
7475.804
 20
-8808.158
 30
-1553.743
 70
    32
  0
VERTEX
  8
T68SSILL
 62
3
 10
7485.306
 20
-8815.236
 30
-1551.504
 70
    32
  0
VERTEX
  8
T68SSILL
 62
3
 10
7480.573
 20
-8824.470
 30
-1553.103
 70
    32
  0
VERTEX
  8
T68SSILL
 62
3
 10
7465.141
 20
-8812.775
 30
-1556.719
 70
    32
  0
VERTEX
  8
T68SSILL
 62
3
 10
7465.224
 20
-8810.440
 30
-1557.051
 70
    32
  0
SEQEND
  8
T68SSILL
  0
POLYLINE
  8
T68SSILL
 62
3
 66
     1
 70
     9
  0
VERTEX
  8
T68SSILL
 62
3
 10
7514.925
 20
-8533.747
 30
-1556.979
 70
    32
  0
VERTEX
  8
T68SSILL
 62
3
 10
7513.042
 20
-8539.691
 30
-1558.613
 70
    32
  0
VERTEX
  8
T68SSILL
 62
3
 10
7514.738
 20
-8548.433
 30
-1558.987
 70
    32
  0
VERTEX
  8
T68SSILL
 62
3
 10
7513.880
 20
-8562.609
 30
-1559.783
 70
    32
  0
VERTEX
  8
T68SSILL
 62
3
 10
7494.379
 20
-8573.214
 30
-1561.003
 70
    32
  0
VERTEX
  8
T68SSILL
 62
3
 10
7499.556
 20
-8556.330
 30
-1559.487
 70
    32
  0
VERTEX
  8
T68SSILL
 62
3
 10
7499.195
 20
-8548.678
 30
-1558.963
 70
    32
  0
VERTEX
  8
T68SSILL
 62
3
 10
7496.331
 20
-8546.879
 30
-1557.035
 70
    32
  0
SEQEND
  8
T68SSILL
  0
TEXT
  8
T68SSILL
 62
3
 10
2258.719
 20
-8986.842
 30
-1544.000
 40
8.202
  1
D
 41
 1.0 
  0
TEXT
  8
T68SSILL
 62
3
 10
2223.362
 20
-8944.861
 30
-1542.000
 40
8.202
  1
U
 41
 1.0 
  0
POLYLINE
  8
R_SHAFTS_2
 62
8
 66
     1
 70
     9
  0
VERTEX
  8
R_SHAFTS_2
 62
8
 10
2155.394
 20
-2254.383
 30
5168.000
 70
    32
  0
VERTEX
  8
R_SHAFTS_2
 62
8
 10
2165.394
 20
-2254.383
 30
5168.000
 70
    32
  0
VERTEX
  8
R_SHAFTS_2
 62
8
 10
2165.394
 20
-2264.383
 30
5168.000
 70
    32
  0
VERTEX
  8
R_SHAFTS_2
 62
8
 10
2155.394
 20
-2264.383
 30
5168.000
 70
    32
  0
SEQEND
  8
R_SHAFTS_2
  0
POLYLINE
  8
R_SHAFTS_2
 62
8
 66
     1
 70
     9
  0
VERTEX
  8
R_SHAFTS_2
 62
8
 10
2085.394
 20
-2580.538
 30
3976.000
 70
    32
  0
VERTEX
  8
R_SHAFTS_2
 62
8
 10
2095.394
 20
-2580.538
 30
3976.000
 70
    32
  0
VERTEX
  8
R_SHAFTS_2
 62
8
 10
2095.394
 20
-2590.538
 30
3976.000
 70
    32
  0
VERTEX
  8
R_SHAFTS_2
 62
8
 10
2085.394
 20
-2590.538
 30
3976.000
 70
    32
  0
SEQEND
  8
R_SHAFTS_2
  0
POLYLINE
  8
R_SHAFTS_2
 62
8
 66
     1
 70
     9
  0
VERTEX
  8
R_SHAFTS_2
 62
8
 10
2079.242
 20
-2673.793
 30
3074.000
 70
    32
  0
VERTEX
  8
R_SHAFTS_2
 62
8
 10
2089.242
 20
-2673.793
 30
3074.000
 70
    32
  0
VERTEX
  8
R_SHAFTS_2
 62
8
 10
2089.242
 20
-2683.793
 30
3074.000
 70
    32
  0
VERTEX
  8
R_SHAFTS_2
 62
8
 10
2079.242
 20
-2683.793
 30
3074.000
 70
    32
  0
SEQEND
  8
R_SHAFTS_2
  0
POLYLINE
  8
R_SHAFTS_2
 62
8
 66
     1
 70
     8
  0
VERTEX
  8
R_SHAFTS_2
 62
8
 10
2160.000
 20
-2260.000
 30
5168.000
 70
    32
  0
VERTEX
  8
R_SHAFTS_2
 62
8
 10
2090.000
 20
-2585.000
 30
3976.000
 70
    32
  0
VERTEX
  8
R_SHAFTS_2
 62
8
 10
2085.000
 20
-2680.000
 30
3074.000
 70
    32
  0
SEQEND
  8
R_SHAFTS_2
  0
ENDSEC
  0
EOF
