  0
SECTION
  2
HEADER
  9
$ACADVER
  1
AC1015
  9
$ACADMAINTVER
 70
     6
  9
$DWGCODEPAGE
  3
ANSI_932
  9
$INSBASE
 10
0.0
 20
0.0
 30
0.0
  9
$EXTMIN
 10
7.912868
 20
0.08096
 30
1.000000E+20
  9
$EXTMAX
 10
208.297019
 20
279.680086
 30
-1.000000E+20
  9
$LIMMIN
 10
7.912868
 20
0.08096
  9
$LIMMAX
 10
208.297019
 20
279.680086
  9
$ORTHOMODE
 70
     0
  9
$REGENMODE
 70
     1
  9
$FILLMODE
 70
     1
  9
$QTEXTMODE
 70
     0
  9
$MIRRTEXT
 70
     1
  9
$LTSCALE
 40
1.0
  9
$ATTMODE
 70
     1
  9
$TEXTSIZE
 40
0.2
  9
$TRACEWID
 40
0.05
  9
$TEXTSTYLE
  7
Standard
  9
$CLAYER
  8
0
  9
$CELTYPE
  6
Continuous
  9
$CECOLOR
 62
   256
  9
$CELTSCALE
 40
1.0
  9
$DISPSILH
 70
     0
  9
$DIMSCALE
 40
1.0
  9
$DIMASZ
 40
0.18
  9
$DIMEXO
 40
0.0625
  9
$DIMDLI
 40
0.38
  9
$DIMRND
 40
0.0
  9
$DIMDLE
 40
0.0
  9
$DIMEXE
 40
0.18
  9
$DIMTP
 40
0.0
  9
$DIMTM
 40
0.0
  9
$DIMTXT
 40
0.18
  9
$DIMCEN
 40
0.09
  9
$DIMTSZ
 40
0.0
  9
$DIMTOL
 70
     0
  9
$DIMLIM
 70
     0
  9
$DIMTIH
 70
     1
  9
$DIMTOH
 70
     1
  9
$DIMSE1
 70
     0
  9
$DIMSE2
 70
     0
  9
$DIMTAD
 70
     0
  9
$DIMZIN
 70
     0
  9
$DIMBLK
  1

  9
$DIMASO
 70
     1
  9
$DIMSHO
 70
     1
  9
$DIMPOST
  1

  9
$DIMAPOST
  1

  9
$DIMALT
 70
     0
  9
$DIMALTD
 70
     2
  9
$DIMALTF
 40
25.4
  9
$DIMLFAC
 40
1.0
  9
$DIMTOFL
 70
     0
  9
$DIMTVP
 40
0.0
  9
$DIMTIX
 70
     0
  9
$DIMSOXD
 70
     0
  9
$DIMSAH
 70
     0
  9
$DIMBLK1
  1

  9
$DIMBLK2
  1

  9
$DIMSTYLE
  2
Standard
  9
$DIMCLRD
 70
     0
  9
$DIMCLRE
 70
     0
  9
$DIMCLRT
 70
     0
  9
$DIMTFAC
 40
1.0
  9
$DIMGAP
 40
0.09
  9
$DIMJUST
 70
     0
  9
$DIMSD1
 70
     0
  9
$DIMSD2
 70
     0
  9
$DIMTOLJ
 70
     1
  9
$DIMTZIN
 70
     0
  9
$DIMALTZ
 70
     0
  9
$DIMALTTZ
 70
     0
  9
$DIMUPT
 70
     0
  9
$DIMDEC
 70
     4
  9
$DIMTDEC
 70
     4
  9
$DIMALTU
 70
     2
  9
$DIMALTTD
 70
     2
  9
$DIMTXSTY
  7
Standard
  9
$DIMAUNIT
 70
     0
  9
$DIMADEC
 70
     0
  9
$DIMALTRND
 40
0.0
  9
$DIMAZIN
 70
     0
  9
$DIMDSEP
 70
     0
  9
$DIMATFIT
 70
     3
  9
$DIMFRAC
 70
     0
  9
$DIMLDRBLK
  1

  9
$DIMLUNIT
 70
     2
  9
$DIMLWD
 70
     0
  9
$DIMLWE
 70
     0
  9
$DIMTMOVE
 70
     0
  9
$LUNITS
 70
     2
  9
$LUPREC
 70
     4
  9
$SKETCHINC
 40
0.1
  9
$FILLETRAD
 40
0.0
  9
$AUNITS
 70
     0
  9
$AUPREC
 70
     0
  9
$MENU
  1
acad
  9
$ELEVATION
 40
0.0
  9
$PELEVATION
 40
0.0
  9
$THICKNESS
 40
0.0
  9
$LIMCHECK
 70
     0
  9
$CHAMFERA
 40
0.0
  9
$CHAMFERB
 40
0.0
  9
$CHAMFERC
 40
0.0
  9
$CHAMFERD
 40
0.0
  9
$SKPOLY
 70
     0
  9
$TDCREATE
 40
0.000000000
  9
$TDUCREATE
 40
0.000000000
  9
$TDUPDATE
 40
0.000000000
  9
$TDUUPDATE
 40
0.000000000
  9
$TDINDWG
 40
0.0000000000
  9
$TDUSRTIMER
 40
0.0000000000
  9
$USRTIMER
 70
     1
  9
$ANGBASE
 50
0.0
  9
$ANGDIR
 70
     0
  9
$PDMODE
 70
     0
  9
$PDSIZE
 40
0.0
  9
$PLINEWID
 40
0.0
  9
$SPLFRAME
 70
     0
  9
$SPLINETYPE
 70
     6
  9
$SPLINESEGS
 70
     8
  9
$HANDSEED
  5
591
  9
$SURFTAB1
 70
     6
  9
$SURFTAB2
 70
     6
  9
$SURFTYPE
 70
     6
  9
$SURFU
 70
     6
  9
$SURFV
 70
     6
  9
$UCSBASE
  2

  9
$UCSNAME
  2

  9
$UCSORG
 10
0.0
 20
0.0
 30
0.0
  9
$UCSXDIR
 10
1.0
 20
0.0
 30
0.0
  9
$UCSYDIR
 10
0.0
 20
1.0
 30
0.0
  9
$UCSORTHOREF
  2

  9
$UCSORTHOVIEW
 70
     0
  9
$UCSORGTOP
 10
0.0
 20
0.0
 30
0.0
  9
$UCSORGBOTTOM
 10
0.0
 20
0.0
 30
0.0
  9
$UCSORGLEFT
 10
0.0
 20
0.0
 30
0.0
  9
$UCSORGRIGHT
 10
0.0
 20
0.0
 30
0.0
  9
$UCSORGFRONT
 10
0.0
 20
0.0
 30
0.0
  9
$UCSORGBACK
 10
0.0
 20
0.0
 30
0.0
  9
$PUCSBASE
  2

  9
$PUCSNAME
  2

  9
$PUCSORG
 10
0.0
 20
0.0
 30
0.0
  9
$PUCSXDIR
 10
1.0
 20
0.0
 30
0.0
  9
$PUCSYDIR
 10
0.0
 20
1.0
 30
0.0
  9
$PUCSORTHOREF
  2

  9
$PUCSORTHOVIEW
 70
     0
  9
$PUCSORGTOP
 10
0.0
 20
0.0
 30
0.0
  9
$PUCSORGBOTTOM
 10
0.0
 20
0.0
 30
0.0
  9
$PUCSORGLEFT
 10
0.0
 20
0.0
 30
0.0
  9
$PUCSORGRIGHT
 10
0.0
 20
0.0
 30
0.0
  9
$PUCSORGFRONT
 10
0.0
 20
0.0
 30
0.0
  9
$PUCSORGBACK
 10
0.0
 20
0.0
 30
0.0
  9
$USERI1
 70
     0
  9
$USERI2
 70
     0
  9
$USERI3
 70
     0
  9
$USERI4
 70
     0
  9
$USERI5
 70
     0
  9
$USERR1
 40
0.0
  9
$USERR2
 40
0.0
  9
$USERR3
 40
0.0
  9
$USERR4
 40
0.0
  9
$USERR5
 40
0.0
  9
$WORLDVIEW
 70
     1
  9
$SHADEDGE
 70
     3
  9
$SHADEDIF
 70
    70
  9
$TILEMODE
 70
     1
  9
$MAXACTVP
 70
    16
  9
$PINSBASE
 10
0.0
 20
0.0
 30
0.0
  9
$PLIMCHECK
 70
     0
  9
$PEXTMIN
 10
1.000000E+20
 20
1.000000E+20
 30
1.000000E+20
  9
$PEXTMAX
 10
-1.000000E+20
 20
-1.000000E+20
 30
-1.000000E+20
  9
$PLIMMIN
 10
0.0
 20
0.0
  9
$PLIMMAX
 10
12.0
 20
9.0
  9
$UNITMODE
 70
     0
  9
$VISRETAIN
 70
     0
  9
$PLINEGEN
 70
     1
  9
$PSLTSCALE
 70
     0
  9
$TREEDEPTH
 70
  3020
  9
$CMLSTYLE
  2
Standard
  9
$CMLJUST
 70
     0
  9
$CMLSCALE
 40
1.0
  9
$PROXYGRAPHICS
 70
     0
  9
$MEASUREMENT
 70
     1
  9
$CELWEIGHT
370
     0
  9
$ENDCAPS
280
     0
  9
$JOINSTYLE
280
     0
  9
$LWDISPLAY
290
     0
  9
$INSUNITS
 70
     0
  9
$HYPERLINKBASE
  1

  9
$STYLESHEET
  1

  9
$XEDIT
290
     1
  9
$CEPSNTYPE
380
     0
  9
$PSTYLEMODE
290
     1
  9
$FINGERPRINTGUID
  2

  9
$VERSIONGUID
  2

  9
$EXTNAMES
290
     1
  9
$PSVPSCALE
 40
0.0
  0
ENDSEC
  0
SECTION
  2
CLASSES
  0
CLASS
  1
LWPOLYLINE
  2
AcDbPolyline
  3
AutoCAD 2000
 90
    32768
280
     0
281
     1
  0
CLASS
  1
IMAGE
  2
AcDbRasterImage
  3
ISM
 90
    32895
280
     0
281
     1
  0
CLASS
  1
OLE2FRAME
  2
AcDbOle2Frame
  3
AutoCAD 2000
 90
    32768
280
     0
281
     1
  0
CLASS
  1
HATCH
  2
AcDbHatch
  3
AutoCAD 2000
 90
    32768
280
     0
281
     1
  0
CLASS
  1
DICTIONARYVAR
  2
AcDbDictionaryVar
  3
AutoCAD 2000
 90
    32768
280
     0
281
     0
  0
CLASS
  1
RASTERVARIABLES
  2
AcDbRasterVariables
  3
ISM
 90
    32768
280
     0
281
     0
  0
CLASS
  1
IMAGEDEF
  2
AcDbRasterImageDef
  3
ISM
 90
    32768
280
     0
281
     0
  0
CLASS
  1
IMAGEDEF_REACTOR
  2
AcDbRasterImageDefReactor
  3
ISM
 90
    32769
280
     0
281
     0
  0
CLASS
  1
IDBUFFER
  2
AcDbIdBuffer
  3
AutoCAD 2000
 90
    32768
280
     0
281
     0
  0
CLASS
  1
SPATIAL_FILTER
  2
AcDbSpatialFilter
  3
AutoCAD 2000
 90
    32768
280
     0
281
     0
  0
CLASS
  1
XRECORD
  2
AcDbXrecord
  3
AutoCAD 2000
 90
    32768
280
     0
281
     0
  0
CLASS
  1
SORTENTSTABLE
  2
AcDbSortentsTable
  3
AutoCAD 2000
 90
    32768
280
     0
281
     0
  0
CLASS
  1
LAYER_INDEX
  2
AcDbLayerIndex
  3
AutoCAD 2000
 90
    32768
280
     0
281
     0
  0
CLASS
  1
SPATIAL_INDEX
  2
AcDbSpatialIndex
  3
AutoCAD 2000
 90
    32768
280
     0
281
     0
  0
CLASS
  1
OBJECT_PTR
  2
CAseDLPNTableRecord
  3
"ASE-LPNTableRecord"
 90
    32769
280
     0
281
     0
  0
CLASS
  1
LAYOUT
  2
AcDbLayout
  3
AutoCAD 2000
 90
        0
280
     0
281
     0
  0
CLASS
  1
PLOTSETTINGS
  2
AcDbPlotSettings
  3
AutoCAD 2000
 90
    32768
280
     0
281
     0
  0
CLASS
  1
ACDBDICTIONARYWDFLT
  2
AcDbDictionaryWithDefault
  3
AutoCAD 2000
 90
        0
280
     0
281
     0
  0
CLASS
  1
ACDBPLACEHOLDER
  2
AcDbPlaceHolder
  3
AutoCAD 2000
 90
        0
280
     0
281
     0
  0
CLASS
  1
VBA_PROJECT
  2
AcDbVbaProject
  3
acadvba
 90
    32768
280
     0
281
     0
  0
CLASS
  1
WIPEOUT
  2
AcDbWipeout
  3
WipeOut|AutoCAD Express Tool|expresstools@autodesk.com
 90
    32895
280
     0
281
     1
  0
CLASS
  1
WIPEOUTVARIABLES
  2
AcDbWipeoutVariables
  3
WipeOut|AutoCAD Express Tool|expresstools@autodesk.com
 90
        0
280
     0
281
     0
  0
CLASS
  1
RTEXT
  2
RText
  3
RText|AutoCAD Express Tool|expresstools@autodesk.com
 90
    32768
280
     0
281
     1
  0
CLASS
  1
ARCALIGNEDTEXT
  2
AcDbArcAlignedText
  3
ATEXT|AutoCAD Express Tool|expresstools@autodesk.com
 90
    32768
280
     0
281
     1
  0
ENDSEC
  0
SECTION
  2
TABLES
  0
TABLE
  2
VPORT
  5
7
100
AcDbSymbolTable
 70
     1
  0
VPORT
  5
15
100
AcDbSymbolTableRecord
100
AcDbViewportTableRecord
  2
*ACTIVE
 70
     0
 10
0.0
 20
0.0
 11
1.0
 21
1.0
 12
6.591288
 22
4.579184
 13
0.0
 23
0.0
 14
1.0
 24
1.0
 15
0.0
 25
0.0
 16
0.0
 26
0.0
 36
1.0
 17
0.0
 27
0.0
 37
0.0
 40
9.158369
 41
0.688564
 42
50.0
 43
0.0
 44
0.0
 50
0.0
 51
0.0
 71
     0
 72
   100
 73
     1
 74
     1
 75
     0
 76
     0
 77
     0
 78
     0
281
     0
 65
     0
110
0.0
120
0.0
130
0.0
111
1.0
121
0.0
131
0.0
112
0.0
122
1.0
132
0.0
345
0
346
0
 79
     0
146
0.0
  0
ENDTAB
  0
TABLE
  2
LTYPE
  5
4
100
AcDbSymbolTable
 70
     3
  0
LTYPE
  5
11
100
AcDbSymbolTableRecord
100
AcDbLinetypeTableRecord
  2
ByBlock
 70
    64
  3

 72
    65
 73
     0
 40
0.0
  0
LTYPE
  5
12
100
AcDbSymbolTableRecord
100
AcDbLinetypeTableRecord
  2
ByLayer
 70
    64
  3

 72
    65
 73
     0
 40
0.0
  0
LTYPE
  5
13
100
AcDbSymbolTableRecord
100
AcDbLinetypeTableRecord
  2
Continuous
 70
    64
  3
Solid line
 72
    65
 73
     0
 40
0.0
  0
ENDTAB
  0
TABLE
  2
LAYER
  5
2
100
AcDbSymbolTable
 70
     6
  0
LAYER
  5
14
100
AcDbSymbolTableRecord
100
AcDbLayerTableRecord
  2
0
 70
     0
 62
     7
  6
Continuous
290
     1
370
    -3
390
1D
  0
LAYER
  5
28
100
AcDbSymbolTableRecord
100
AcDbLayerTableRecord
  2
0
 70
     0
 62
     2
  6
Continuous
290
     1
370
    -3
390
1D
  0
LAYER
  5
29
100
AcDbSymbolTableRecord
100
AcDbLayerTableRecord
  2
1000SCALE
 70
     0
 62
     5
  6
Continuous
290
     1
370
    -3
390
1D
  0
LAYER
  5
2B
100
AcDbSymbolTableRecord
100
AcDbLayerTableRecord
  2
T80SSILL
 70
     0
 62
     3
  6
Continuous
290
     1
370
    -3
390
1D
  0
LAYER
  5
4A8
100
AcDbSymbolTableRecord
100
AcDbLayerTableRecord
  2
R_SHAFTS_2
 70
     0
 62
     1
  6
Continuous
290
     1
370
    -3
390
1D
  0
LAYER
  5
58A
100
AcDbSymbolTableRecord
100
AcDbLayerTableRecord
  2
R_SHAFTS_1
 70
     0
 62
   160
  6
Continuous
290
     1
370
    -3
390
1D
  0
ENDTAB
  0
TABLE
  2
STYLE
  5
3
100
AcDbSymbolTable
 70
     5
  0
STYLE
  5
17
100
AcDbSymbolTableRecord
100
AcDbTextStyleTableRecord
  2
Standard
 70
     0
 40
0.0
 41
1.0
 50
0.0
 71
     0
 42
0.0
  3
txt
  4

  0
STYLE
  5
24
100
AcDbSymbolTableRecord
100
AcDbTextStyleTableRecord
  2
STD
 70
     0
 40
0.0
 41
1.0
 50
0.0
 71
     0
 42
0.0
  3
txt
  4

  0
STYLE
  5
25
100
AcDbSymbolTableRecord
100
AcDbTextStyleTableRecord
  2
TATESTD
 70
     4
 40
0.0
 41
1.0
 50
0.0
 71
     0
 42
0.0
  3
txt
  4

  0
STYLE
  5
26
100
AcDbSymbolTableRecord
100
AcDbTextStyleTableRecord
  2
KANJISTD
 70
     0
 40
0.0
 41
1.0
 50
0.0
 71
     0
 42
0.0
  3
txt
  4
extfont
  0
STYLE
  5
27
100
AcDbSymbolTableRecord
100
AcDbTextStyleTableRecord
  2
KANJITATE
 70
     4
 40
0.0
 41
1.0
 50
0.0
 71
     0
 42
0.0
  3
txt
  4
extfont
  0
ENDTAB
  0
TABLE
  2
VIEW
  5
5
100
AcDbSymbolTable
 70
     0
  0
ENDTAB
  0
TABLE
  2
UCS
  5
6
100
AcDbSymbolTable
 70
     0
  0
ENDTAB
  0
TABLE
  2
APPID
  5
8
100
AcDbSymbolTable
 70
     1
  0
APPID
  5
16
100
AcDbSymbolTableRecord
100
AcDbRegAppTableRecord
  2
ACAD
 70
     0
  0
ENDTAB
  0
TABLE
  2
DIMSTYLE
  5
9
100
AcDbSymbolTable
 70
     1
100
AcDbDimStyleTable
 71
     0
  0
DIMSTYLE
105
18
100
AcDbSymbolTableRecord
100
AcDbDimStyleTableRecord
  2
Standard
 70
     0
  3

  4

 40
1.0
 41
0.18
 42
0.0625
 43
0.38
 44
0.18
 45
0.0
 46
0.0
 47
0.0
 48
0.0
 71
     0
 72
     0
 73
     1
 74
     1
 75
     0
 76
     0
 77
     0
 78
     0
 79
     0
140
0.18
141
0.09
142
0.0
143
25.4
144
1.0
145
0.0
146
1.0
147
0.09
148
0.0
170
     0
171
     2
172
     0
173
     0
174
     0
175
     0
176
     0
177
     0
178
     0
179
     0
271
     4
272
     4
273
     2
274
     2
275
     0
276
     0
277
     2
278
    46
279
     0
280
     0
281
     0
282
     0
283
     1
284
     0
285
     0
286
     0
288
     0
340
17
341
0
342
0
343
0
344
0
371
    -2
372
    -2
  0
ENDTAB
  0
TABLE
  2
BLOCK_RECORD
  5
1
100
AcDbSymbolTable
 70
     0
  0
BLOCK_RECORD
  5
A
100
AcDbSymbolTableRecord
100
AcDbBlockTableRecord
  2
*MODEL_SPACE
340
20
  0
BLOCK_RECORD
  5
B
100
AcDbSymbolTableRecord
100
AcDbBlockTableRecord
  2
*PAPER_SPACE
340
21
  0
ENDTAB
  0
ENDSEC
  0
SECTION
  2
BLOCKS
  0
BLOCK
  5
D
100
AcDbEntity
  8
0
100
AcDbBlockBegin
  2
*MODEL_SPACE
 70
     0
 10
0.0
 20
0.0
 30
0.0
  3
*MODEL_SPACE
  1

  0
ENDBLK
  5
E
100
AcDbEntity
  8
0
100
AcDbBlockEnd
  0
BLOCK
  5
F
100
AcDbEntity
 67
     1
  8
0
100
AcDbBlockBegin
  2
*PAPER_SPACE
 70
     0
 10
0.0
 20
0.0
 30
0.0
  3
*PAPER_SPACE
  1

  0
ENDBLK
  5
10
100
AcDbEntity
 67
     1
  8
0
100
AcDbBlockEnd
  0
ENDSEC
  0
SECTION
  2
ENTITIES
  0
MTEXT
  5
590
100
AcDbEntity
  8
R_SHAFTS_1
 62
     7
100
AcDbMText
 10
207.775776
 20
35.866829
 30
0.0
 40
0.085379
 41
0.0
 71
     1
 72
     2
  1
\fMyriad Roman|b0|i0;\H0.0854;\C1;\U+0034\U+002D\U+0057\U+0049\U+004E\U+005A\U+0045
  7
STD
210
0.0
220
0.0
230
1.0
 73
     1
 44
1.0
  0
MTEXT
  5
58F
100
AcDbEntity
  8
R_SHAFTS_1
 62
     7
100
AcDbMText
 10
130.49126
 20
111.84531
 30
0.0
 40
0.085379
 41
0.0
 71
     1
 72
     2
  1
\fMyriad Roman|b0|i0;\H0.0854;\C1;\U+0036\U+002D\U+0053\U+0048\U+0041\U+0046\U+0054
  7
STD
210
0.0
220
0.0
230
1.0
 73
     1
 44
1.0
  0
MTEXT
  5
58E
100
AcDbEntity
  8
R_SHAFTS_1
 62
     7
100
AcDbMText
 10
130.081726
 20
115.537599
 30
0.0
 40
0.085379
 41
0.0
 71
     1
 72
     2
  1
\fMyriad Roman|b0|i0;\H0.0854;\C1;\U+0052\U+004F\U+0053\U+0053
  7
STD
210
0.0
220
0.0
230
1.0
 11
0.025619
 21
0.999672
 31
0.0
 73
     1
 44
1.0
  0
MTEXT
  5
58D
100
AcDbEntity
  8
R_SHAFTS_1
 62
     7
100
AcDbMText
 10
148.000613
 20
112.950851
 30
0.0
 40
3.149801
 41
0.0
 71
     1
 72
     2
  1
\fMyriad Roman|b0|i0;\H3.1498;\C7;\U+0023\U+0036\U+0020\U+0077\U+0069\U+006E\U+007A\U+0065
  7
STD
210
0.0
220
0.0
230
1.0
 73
     1
 44
1.0
  0
MTEXT
  5
58C
100
AcDbEntity
  8
R_SHAFTS_1
 62
     7
100
AcDbMText
 10
168.121349
 20
80.986911
 30
0.0
 40
3.149801
 41
0.0
 71
     1
 72
     2
  1
\fMyriad Roman|b0|i0;\H3.1498;\C7;\U+0038\U+0030\U+0030\U+0030\U+0020\U+004C\U+0065\U+0076\U+0065\U+006C
  7
STD
210
0.0
220
0.0
230
1.0
 73
     1
 44
1.0
  0
MTEXT
  5
58B
100
AcDbEntity
  8
R_SHAFTS_1
 62
     7
100
AcDbMText
 10
99.442681
 20
36.604779
 30
0.0
 40
3.149801
 41
0.0
 71
     1
 72
     2
  1
\fMyriad Roman|b0|i0;\H3.1498;\C7;\U+0031\U+0030\U+0030\U+0030\U+0020\U+0066\U+0074
  7
STD
210
0.0
220
0.0
230
1.0
 73
     1
 44
1.0
  0
POLYLINE
  5
584
100
AcDbEntity
  8
R_SHAFTS_2
 62
     7
100
AcDb2dPolyline
 66
     1
 10
0.0
 20
0.0
 30
0.0
 70
     1
  0
VERTEX
  5
585
100
AcDbEntity
  8
R_SHAFTS_2
 62
     7
100
AcDbVertex
100
AcDb2dVertex
 10
75.366804
 20
225.462896
 30
0.0
  0
VERTEX
  5
586
100
AcDbEntity
  8
R_SHAFTS_2
 62
     7
100
AcDbVertex
100
AcDb2dVertex
 10
75.574887
 20
225.462896
 30
0.0
  0
VERTEX
  5
587
100
AcDbEntity
  8
R_SHAFTS_2
 62
     7
100
AcDbVertex
100
AcDb2dVertex
 10
75.574887
 20
225.254812
 30
0.0
  0
VERTEX
  5
588
100
AcDbEntity
  8
R_SHAFTS_2
 62
     7
100
AcDbVertex
100
AcDb2dVertex
 10
75.366804
 20
225.254812
 30
0.0
  0
SEQEND
  5
589
100
AcDbEntity
  8
R_SHAFTS_2
 62
     7
  0
POLYLINE
  5
57E
100
AcDbEntity
  8
R_SHAFTS_2
 62
     7
100
AcDb2dPolyline
 66
     1
 10
0.0
 20
0.0
 30
0.0
 70
     1
  0
VERTEX
  5
57F
100
AcDbEntity
  8
R_SHAFTS_2
 62
     7
100
AcDbVertex
100
AcDb2dVertex
 10
7.956965
 20
233.744044
 30
0.0
  0
VERTEX
  5
580
100
AcDbEntity
  8
R_SHAFTS_2
 62
     7
100
AcDbVertex
100
AcDb2dVertex
 10
8.165221
 20
233.744044
 30
0.0
  0
VERTEX
  5
581
100
AcDbEntity
  8
R_SHAFTS_2
 62
     7
100
AcDbVertex
100
AcDb2dVertex
 10
8.165221
 20
233.536133
 30
0.0
  0
VERTEX
  5
582
100
AcDbEntity
  8
R_SHAFTS_2
 62
     7
100
AcDbVertex
100
AcDb2dVertex
 10
7.956965
 20
233.536133
 30
0.0
  0
SEQEND
  5
583
100
AcDbEntity
  8
R_SHAFTS_2
 62
     7
  0
POLYLINE
  5
578
100
AcDbEntity
  8
R_SHAFTS_2
 62
     7
100
AcDb2dPolyline
 66
     1
 10
0.0
 20
0.0
 30
0.0
 70
     1
  0
VERTEX
  5
579
100
AcDbEntity
  8
R_SHAFTS_2
 62
     7
100
AcDbVertex
100
AcDb2dVertex
 10
70.736768
 20
203.2894
 30
0.0
  0
VERTEX
  5
57A
100
AcDbEntity
  8
R_SHAFTS_2
 62
     7
100
AcDbVertex
100
AcDb2dVertex
 10
70.944851
 20
203.2894
 30
0.0
  0
VERTEX
  5
57B
100
AcDbEntity
  8
R_SHAFTS_2
 62
     7
100
AcDbVertex
100
AcDb2dVertex
 10
70.944851
 20
203.081316
 30
0.0
  0
VERTEX
  5
57C
100
AcDbEntity
  8
R_SHAFTS_2
 62
     7
100
AcDbVertex
100
AcDb2dVertex
 10
70.736768
 20
203.081316
 30
0.0
  0
SEQEND
  5
57D
100
AcDbEntity
  8
R_SHAFTS_2
 62
     7
  0
POLYLINE
  5
572
100
AcDbEntity
  8
R_SHAFTS_2
 62
     7
100
AcDb2dPolyline
 66
     1
 10
0.0
 20
0.0
 30
0.0
 70
     1
  0
VERTEX
  5
573
100
AcDbEntity
  8
R_SHAFTS_2
 62
     7
100
AcDbVertex
100
AcDb2dVertex
 10
7.956965
 20
233.744044
 30
0.0
  0
VERTEX
  5
574
100
AcDbEntity
  8
R_SHAFTS_2
 62
     7
100
AcDbVertex
100
AcDb2dVertex
 10
8.165221
 20
233.744044
 30
0.0
  0
VERTEX
  5
575
100
AcDbEntity
  8
R_SHAFTS_2
 62
     7
100
AcDbVertex
100
AcDb2dVertex
 10
8.165221
 20
233.536133
 30
0.0
  0
VERTEX
  5
576
100
AcDbEntity
  8
R_SHAFTS_2
 62
     7
100
AcDbVertex
100
AcDb2dVertex
 10
7.956965
 20
233.536133
 30
0.0
  0
SEQEND
  5
577
100
AcDbEntity
  8
R_SHAFTS_2
 62
     7
  0
POLYLINE
  5
56C
100
AcDbEntity
  8
R_SHAFTS_2
 62
     7
100
AcDb2dPolyline
 66
     1
 10
0.0
 20
0.0
 30
0.0
 70
     1
  0
VERTEX
  5
56D
100
AcDbEntity
  8
R_SHAFTS_2
 62
     7
100
AcDbVertex
100
AcDb2dVertex
 10
29.812651
 20
279.36331
 30
0.0
  0
VERTEX
  5
56E
100
AcDbEntity
  8
R_SHAFTS_2
 62
     7
100
AcDbVertex
100
AcDb2dVertex
 10
30.020907
 20
279.36331
 30
0.0
  0
VERTEX
  5
56F
100
AcDbEntity
  8
R_SHAFTS_2
 62
     7
100
AcDbVertex
100
AcDb2dVertex
 10
30.020907
 20
279.155226
 30
0.0
  0
VERTEX
  5
570
100
AcDbEntity
  8
R_SHAFTS_2
 62
     7
100
AcDbVertex
100
AcDb2dVertex
 10
29.812651
 20
279.155226
 30
0.0
  0
SEQEND
  5
571
100
AcDbEntity
  8
R_SHAFTS_2
 62
     7
  0
POLYLINE
  5
566
100
AcDbEntity
  8
R_SHAFTS_2
 62
     7
100
AcDb2dPolyline
 66
     1
 10
0.0
 20
0.0
 30
0.0
 70
     1
  0
VERTEX
  5
567
100
AcDbEntity
  8
R_SHAFTS_2
 62
     7
100
AcDbVertex
100
AcDb2dVertex
 10
58.098607
 20
254.787204
 30
0.0
  0
VERTEX
  5
568
100
AcDbEntity
  8
R_SHAFTS_2
 62
     7
100
AcDbVertex
100
AcDb2dVertex
 10
58.306863
 20
254.787204
 30
0.0
  0
VERTEX
  5
569
100
AcDbEntity
  8
R_SHAFTS_2
 62
     7
100
AcDbVertex
100
AcDb2dVertex
 10
58.306863
 20
254.578948
 30
0.0
  0
VERTEX
  5
56A
100
AcDbEntity
  8
R_SHAFTS_2
 62
     7
100
AcDbVertex
100
AcDb2dVertex
 10
58.098607
 20
254.578948
 30
0.0
  0
SEQEND
  5
56B
100
AcDbEntity
  8
R_SHAFTS_2
 62
     7
  0
POLYLINE
  5
560
100
AcDbEntity
  8
R_SHAFTS_2
 62
     7
100
AcDb2dPolyline
 66
     1
 10
0.0
 20
0.0
 30
0.0
 70
     1
  0
VERTEX
  5
561
100
AcDbEntity
  8
R_SHAFTS_2
 62
     7
100
AcDbVertex
100
AcDb2dVertex
 10
29.812651
 20
279.36331
 30
0.0
  0
VERTEX
  5
562
100
AcDbEntity
  8
R_SHAFTS_2
 62
     7
100
AcDbVertex
100
AcDb2dVertex
 10
30.020907
 20
279.36331
 30
0.0
  0
VERTEX
  5
563
100
AcDbEntity
  8
R_SHAFTS_2
 62
     7
100
AcDbVertex
100
AcDb2dVertex
 10
30.020907
 20
279.155226
 30
0.0
  0
VERTEX
  5
564
100
AcDbEntity
  8
R_SHAFTS_2
 62
     7
100
AcDbVertex
100
AcDb2dVertex
 10
29.812651
 20
279.155226
 30
0.0
  0
SEQEND
  5
565
100
AcDbEntity
  8
R_SHAFTS_2
 62
     7
  0
POLYLINE
  5
55A
100
AcDbEntity
  8
R_SHAFTS_2
 62
     7
100
AcDb2dPolyline
 66
     1
 10
0.0
 20
0.0
 30
0.0
 70
     1
  0
VERTEX
  5
55B
100
AcDbEntity
  8
R_SHAFTS_2
 62
     7
100
AcDbVertex
100
AcDb2dVertex
 10
58.098607
 20
254.787204
 30
0.0
  0
VERTEX
  5
55C
100
AcDbEntity
  8
R_SHAFTS_2
 62
     7
100
AcDbVertex
100
AcDb2dVertex
 10
58.306863
 20
254.787204
 30
0.0
  0
VERTEX
  5
55D
100
AcDbEntity
  8
R_SHAFTS_2
 62
     7
100
AcDbVertex
100
AcDb2dVertex
 10
58.306863
 20
254.578948
 30
0.0
  0
VERTEX
  5
55E
100
AcDbEntity
  8
R_SHAFTS_2
 62
     7
100
AcDbVertex
100
AcDb2dVertex
 10
58.098607
 20
254.578948
 30
0.0
  0
SEQEND
  5
55F
100
AcDbEntity
  8
R_SHAFTS_2
 62
     7
  0
POLYLINE
  5
554
100
AcDbEntity
  8
R_SHAFTS_2
 62
     7
100
AcDb2dPolyline
 66
     1
 10
0.0
 20
0.0
 30
0.0
 70
     1
  0
VERTEX
  5
555
100
AcDbEntity
  8
R_SHAFTS_2
 62
     7
100
AcDbVertex
100
AcDb2dVertex
 10
75.366804
 20
225.462896
 30
0.0
  0
VERTEX
  5
556
100
AcDbEntity
  8
R_SHAFTS_2
 62
     7
100
AcDbVertex
100
AcDb2dVertex
 10
75.574887
 20
225.462896
 30
0.0
  0
VERTEX
  5
557
100
AcDbEntity
  8
R_SHAFTS_2
 62
     7
100
AcDbVertex
100
AcDb2dVertex
 10
75.574887
 20
225.254812
 30
0.0
  0
VERTEX
  5
558
100
AcDbEntity
  8
R_SHAFTS_2
 62
     7
100
AcDbVertex
100
AcDb2dVertex
 10
75.366804
 20
225.254812
 30
0.0
  0
SEQEND
  5
559
100
AcDbEntity
  8
R_SHAFTS_2
 62
     7
  0
POLYLINE
  5
54E
100
AcDbEntity
  8
R_SHAFTS_2
 62
     7
100
AcDb2dPolyline
 66
     1
 10
0.0
 20
0.0
 30
0.0
 70
     1
  0
VERTEX
  5
54F
100
AcDbEntity
  8
R_SHAFTS_2
 62
     7
100
AcDbVertex
100
AcDb2dVertex
 10
96.95894
 20
182.379565
 30
0.0
  0
VERTEX
  5
550
100
AcDbEntity
  8
R_SHAFTS_2
 62
     7
100
AcDbVertex
100
AcDb2dVertex
 10
97.167196
 20
182.379565
 30
0.0
  0
VERTEX
  5
551
100
AcDbEntity
  8
R_SHAFTS_2
 62
     7
100
AcDbVertex
100
AcDb2dVertex
 10
97.167196
 20
182.171309
 30
0.0
  0
VERTEX
  5
552
100
AcDbEntity
  8
R_SHAFTS_2
 62
     7
100
AcDbVertex
100
AcDb2dVertex
 10
96.95894
 20
182.171309
 30
0.0
  0
SEQEND
  5
553
100
AcDbEntity
  8
R_SHAFTS_2
 62
     7
  0
POLYLINE
  5
548
100
AcDbEntity
  8
R_SHAFTS_2
 62
     7
100
AcDb2dPolyline
 66
     1
 10
0.0
 20
0.0
 30
0.0
 70
     1
  0
VERTEX
  5
549
100
AcDbEntity
  8
R_SHAFTS_2
 62
     7
100
AcDbVertex
100
AcDb2dVertex
 10
70.736768
 20
203.2894
 30
0.0
  0
VERTEX
  5
54A
100
AcDbEntity
  8
R_SHAFTS_2
 62
     7
100
AcDbVertex
100
AcDb2dVertex
 10
70.944851
 20
203.2894
 30
0.0
  0
VERTEX
  5
54B
100
AcDbEntity
  8
R_SHAFTS_2
 62
     7
100
AcDbVertex
100
AcDb2dVertex
 10
70.944851
 20
203.081316
 30
0.0
  0
VERTEX
  5
54C
100
AcDbEntity
  8
R_SHAFTS_2
 62
     7
100
AcDbVertex
100
AcDb2dVertex
 10
70.736768
 20
203.081316
 30
0.0
  0
SEQEND
  5
54D
100
AcDbEntity
  8
R_SHAFTS_2
 62
     7
  0
POLYLINE
  5
542
100
AcDbEntity
  8
R_SHAFTS_2
 62
     7
100
AcDb2dPolyline
 66
     1
 10
0.0
 20
0.0
 30
0.0
 70
     1
  0
VERTEX
  5
543
100
AcDbEntity
  8
R_SHAFTS_2
 62
     7
100
AcDbVertex
100
AcDb2dVertex
 10
96.95894
 20
182.379565
 30
0.0
  0
VERTEX
  5
544
100
AcDbEntity
  8
R_SHAFTS_2
 62
     7
100
AcDbVertex
100
AcDb2dVertex
 10
97.167196
 20
182.379565
 30
0.0
  0
VERTEX
  5
545
100
AcDbEntity
  8
R_SHAFTS_2
 62
     7
100
AcDbVertex
100
AcDb2dVertex
 10
97.167196
 20
182.171309
 30
0.0
  0
VERTEX
  5
546
100
AcDbEntity
  8
R_SHAFTS_2
 62
     7
100
AcDbVertex
100
AcDb2dVertex
 10
96.95894
 20
182.171309
 30
0.0
  0
SEQEND
  5
547
100
AcDbEntity
  8
R_SHAFTS_2
 62
     7
  0
POLYLINE
  5
53C
100
AcDbEntity
  8
R_SHAFTS_2
 62
     7
100
AcDb2dPolyline
 66
     1
 10
0.0
 20
0.0
 30
0.0
 70
     1
  0
VERTEX
  5
53D
100
AcDbEntity
  8
R_SHAFTS_2
 62
     7
100
AcDbVertex
100
AcDb2dVertex
 10
109.228475
 20
188.038652
 30
0.0
  0
VERTEX
  5
53E
100
AcDbEntity
  8
R_SHAFTS_2
 62
     7
100
AcDbVertex
100
AcDb2dVertex
 10
109.436214
 20
188.038652
 30
0.0
  0
VERTEX
  5
53F
100
AcDbEntity
  8
R_SHAFTS_2
 62
     7
100
AcDbVertex
100
AcDb2dVertex
 10
109.436214
 20
187.830396
 30
0.0
  0
VERTEX
  5
540
100
AcDbEntity
  8
R_SHAFTS_2
 62
     7
100
AcDbVertex
100
AcDb2dVertex
 10
109.228475
 20
187.830396
 30
0.0
  0
SEQEND
  5
541
100
AcDbEntity
  8
R_SHAFTS_2
 62
     7
  0
POLYLINE
  5
536
100
AcDbEntity
  8
R_SHAFTS_2
 62
     7
100
AcDb2dPolyline
 66
     1
 10
0.0
 20
0.0
 30
0.0
 70
     1
  0
VERTEX
  5
537
100
AcDbEntity
  8
R_SHAFTS_2
 62
     7
100
AcDbVertex
100
AcDb2dVertex
 10
120.431236
 20
194.549365
 30
0.0
  0
VERTEX
  5
538
100
AcDbEntity
  8
R_SHAFTS_2
 62
     7
100
AcDbVertex
100
AcDb2dVertex
 10
120.639665
 20
194.549365
 30
0.0
  0
VERTEX
  5
539
100
AcDbEntity
  8
R_SHAFTS_2
 62
     7
100
AcDbVertex
100
AcDb2dVertex
 10
120.639665
 20
194.341281
 30
0.0
  0
VERTEX
  5
53A
100
AcDbEntity
  8
R_SHAFTS_2
 62
     7
100
AcDbVertex
100
AcDb2dVertex
 10
120.431236
 20
194.341281
 30
0.0
  0
SEQEND
  5
53B
100
AcDbEntity
  8
R_SHAFTS_2
 62
     7
  0
POLYLINE
  5
530
100
AcDbEntity
  8
R_SHAFTS_2
 62
     7
100
AcDb2dPolyline
 66
     1
 10
0.0
 20
0.0
 30
0.0
 70
     1
  0
VERTEX
  5
531
100
AcDbEntity
  8
R_SHAFTS_2
 62
     7
100
AcDbVertex
100
AcDb2dVertex
 10
113.124878
 20
160.51854
 30
0.0
  0
VERTEX
  5
532
100
AcDbEntity
  8
R_SHAFTS_2
 62
     7
100
AcDbVertex
100
AcDb2dVertex
 10
113.333306
 20
160.51854
 30
0.0
  0
VERTEX
  5
533
100
AcDbEntity
  8
R_SHAFTS_2
 62
     7
100
AcDbVertex
100
AcDb2dVertex
 10
113.333306
 20
160.310284
 30
0.0
  0
VERTEX
  5
534
100
AcDbEntity
  8
R_SHAFTS_2
 62
     7
100
AcDbVertex
100
AcDb2dVertex
 10
113.124878
 20
160.310284
 30
0.0
  0
SEQEND
  5
535
100
AcDbEntity
  8
R_SHAFTS_2
 62
     7
  0
POLYLINE
  5
52A
100
AcDbEntity
  8
R_SHAFTS_2
 62
     7
100
AcDb2dPolyline
 66
     1
 10
0.0
 20
0.0
 30
0.0
 70
     1
  0
VERTEX
  5
52B
100
AcDbEntity
  8
R_SHAFTS_2
 62
     7
100
AcDbVertex
100
AcDb2dVertex
 10
124.908483
 20
155.332121
 30
0.0
  0
VERTEX
  5
52C
100
AcDbEntity
  8
R_SHAFTS_2
 62
     7
100
AcDbVertex
100
AcDb2dVertex
 10
125.116566
 20
155.332121
 30
0.0
  0
VERTEX
  5
52D
100
AcDbEntity
  8
R_SHAFTS_2
 62
     7
100
AcDbVertex
100
AcDb2dVertex
 10
125.116566
 20
155.124037
 30
0.0
  0
VERTEX
  5
52E
100
AcDbEntity
  8
R_SHAFTS_2
 62
     7
100
AcDbVertex
100
AcDb2dVertex
 10
124.908483
 20
155.124037
 30
0.0
  0
SEQEND
  5
52F
100
AcDbEntity
  8
R_SHAFTS_2
 62
     7
  0
POLYLINE
  5
524
100
AcDbEntity
  8
R_SHAFTS_2
 62
     7
100
AcDb2dPolyline
 66
     1
 10
0.0
 20
0.0
 30
0.0
 70
     1
  0
VERTEX
  5
525
100
AcDbEntity
  8
R_SHAFTS_2
 62
     7
100
AcDbVertex
100
AcDb2dVertex
 10
144.89107
 20
131.596791
 30
0.0
  0
VERTEX
  5
526
100
AcDbEntity
  8
R_SHAFTS_2
 62
     7
100
AcDbVertex
100
AcDb2dVertex
 10
145.099154
 20
131.596791
 30
0.0
  0
VERTEX
  5
527
100
AcDbEntity
  8
R_SHAFTS_2
 62
     7
100
AcDbVertex
100
AcDb2dVertex
 10
145.099154
 20
131.389052
 30
0.0
  0
VERTEX
  5
528
100
AcDbEntity
  8
R_SHAFTS_2
 62
     7
100
AcDbVertex
100
AcDb2dVertex
 10
144.89107
 20
131.389052
 30
0.0
  0
SEQEND
  5
529
100
AcDbEntity
  8
R_SHAFTS_2
 62
     7
  0
POLYLINE
  5
51E
100
AcDbEntity
  8
R_SHAFTS_2
 62
     7
100
AcDb2dPolyline
 66
     1
 10
0.0
 20
0.0
 30
0.0
 70
     1
  0
VERTEX
  5
51F
100
AcDbEntity
  8
R_SHAFTS_2
 62
     7
100
AcDbVertex
100
AcDb2dVertex
 10
125.20855
 20
98.440503
 30
0.0
  0
VERTEX
  5
520
100
AcDbEntity
  8
R_SHAFTS_2
 62
     7
100
AcDbVertex
100
AcDb2dVertex
 10
125.416979
 20
98.440503
 30
0.0
  0
VERTEX
  5
521
100
AcDbEntity
  8
R_SHAFTS_2
 62
     7
100
AcDbVertex
100
AcDb2dVertex
 10
125.416979
 20
98.232075
 30
0.0
  0
VERTEX
  5
522
100
AcDbEntity
  8
R_SHAFTS_2
 62
     7
100
AcDbVertex
100
AcDb2dVertex
 10
125.20855
 20
98.232075
 30
0.0
  0
SEQEND
  5
523
100
AcDbEntity
  8
R_SHAFTS_2
 62
     7
  0
POLYLINE
  5
518
100
AcDbEntity
  8
R_SHAFTS_2
 62
     7
100
AcDb2dPolyline
 66
     1
 10
0.0
 20
0.0
 30
0.0
 70
     1
  0
VERTEX
  5
519
100
AcDbEntity
  8
R_SHAFTS_2
 62
     7
100
AcDbVertex
100
AcDb2dVertex
 10
157.715438
 20
103.163384
 30
0.0
  0
VERTEX
  5
51A
100
AcDbEntity
  8
R_SHAFTS_2
 62
     7
100
AcDbVertex
100
AcDb2dVertex
 10
157.923522
 20
103.163384
 30
0.0
  0
VERTEX
  5
51B
100
AcDbEntity
  8
R_SHAFTS_2
 62
     7
100
AcDbVertex
100
AcDb2dVertex
 10
157.923522
 20
102.954956
 30
0.0
  0
VERTEX
  5
51C
100
AcDbEntity
  8
R_SHAFTS_2
 62
     7
100
AcDbVertex
100
AcDb2dVertex
 10
157.715438
 20
102.954956
 30
0.0
  0
SEQEND
  5
51D
100
AcDbEntity
  8
R_SHAFTS_2
 62
     7
  0
POLYLINE
  5
512
100
AcDbEntity
  8
R_SHAFTS_2
 62
     7
100
AcDb2dPolyline
 66
     1
 10
0.0
 20
0.0
 30
0.0
 70
     1
  0
VERTEX
  5
513
100
AcDbEntity
  8
R_SHAFTS_2
 62
     7
100
AcDbVertex
100
AcDb2dVertex
 10
127.118167
 20
78.562646
 30
0.0
  0
VERTEX
  5
514
100
AcDbEntity
  8
R_SHAFTS_2
 62
     7
100
AcDbVertex
100
AcDb2dVertex
 10
127.326595
 20
78.562646
 30
0.0
  0
VERTEX
  5
515
100
AcDbEntity
  8
R_SHAFTS_2
 62
     7
100
AcDbVertex
100
AcDb2dVertex
 10
127.326595
 20
78.354563
 30
0.0
  0
VERTEX
  5
516
100
AcDbEntity
  8
R_SHAFTS_2
 62
     7
100
AcDbVertex
100
AcDb2dVertex
 10
127.118167
 20
78.354563
 30
0.0
  0
SEQEND
  5
517
100
AcDbEntity
  8
R_SHAFTS_2
 62
     7
  0
POLYLINE
  5
50C
100
AcDbEntity
  8
R_SHAFTS_2
 62
     7
100
AcDb2dPolyline
 66
     1
 10
0.0
 20
0.0
 30
0.0
 70
     1
  0
VERTEX
  5
50D
100
AcDbEntity
  8
R_SHAFTS_2
 62
     7
100
AcDbVertex
100
AcDb2dVertex
 10
207.734435
 20
31.287324
 30
0.0
  0
VERTEX
  5
50E
100
AcDbEntity
  8
R_SHAFTS_2
 62
     7
100
AcDbVertex
100
AcDb2dVertex
 10
207.942863
 20
31.287324
 30
0.0
  0
VERTEX
  5
50F
100
AcDbEntity
  8
R_SHAFTS_2
 62
     7
100
AcDbVertex
100
AcDb2dVertex
 10
207.942863
 20
31.07924
 30
0.0
  0
VERTEX
  5
510
100
AcDbEntity
  8
R_SHAFTS_2
 62
     7
100
AcDbVertex
100
AcDb2dVertex
 10
207.734435
 20
31.07924
 30
0.0
  0
SEQEND
  5
511
100
AcDbEntity
  8
R_SHAFTS_2
 62
     7
  0
POLYLINE
  5
506
100
AcDbEntity
  8
R_SHAFTS_2
 62
     7
100
AcDb2dPolyline
 66
     1
 10
0.0
 20
0.0
 30
0.0
 70
     1
  0
VERTEX
  5
507
100
AcDbEntity
  8
R_SHAFTS_2
 62
     7
100
AcDbVertex
100
AcDb2dVertex
 10
109.228475
 20
188.038652
 30
0.0
  0
VERTEX
  5
508
100
AcDbEntity
  8
R_SHAFTS_2
 62
     7
100
AcDbVertex
100
AcDb2dVertex
 10
109.436214
 20
188.038652
 30
0.0
  0
VERTEX
  5
509
100
AcDbEntity
  8
R_SHAFTS_2
 62
     7
100
AcDbVertex
100
AcDb2dVertex
 10
109.436214
 20
187.830396
 30
0.0
  0
VERTEX
  5
50A
100
AcDbEntity
  8
R_SHAFTS_2
 62
     7
100
AcDbVertex
100
AcDb2dVertex
 10
109.228475
 20
187.830396
 30
0.0
  0
SEQEND
  5
50B
100
AcDbEntity
  8
R_SHAFTS_2
 62
     7
  0
POLYLINE
  5
500
100
AcDbEntity
  8
R_SHAFTS_2
 62
     7
100
AcDb2dPolyline
 66
     1
 10
0.0
 20
0.0
 30
0.0
 70
     1
  0
VERTEX
  5
501
100
AcDbEntity
  8
R_SHAFTS_2
 62
     7
100
AcDbVertex
100
AcDb2dVertex
 10
120.431236
 20
194.549365
 30
0.0
  0
VERTEX
  5
502
100
AcDbEntity
  8
R_SHAFTS_2
 62
     7
100
AcDbVertex
100
AcDb2dVertex
 10
120.639665
 20
194.549365
 30
0.0
  0
VERTEX
  5
503
100
AcDbEntity
  8
R_SHAFTS_2
 62
     7
100
AcDbVertex
100
AcDb2dVertex
 10
120.639665
 20
194.341281
 30
0.0
  0
VERTEX
  5
504
100
AcDbEntity
  8
R_SHAFTS_2
 62
     7
100
AcDbVertex
100
AcDb2dVertex
 10
120.431236
 20
194.341281
 30
0.0
  0
SEQEND
  5
505
100
AcDbEntity
  8
R_SHAFTS_2
 62
     7
  0
POLYLINE
  5
4FA
100
AcDbEntity
  8
R_SHAFTS_2
 62
     7
100
AcDb2dPolyline
 66
     1
 10
0.0
 20
0.0
 30
0.0
 70
     1
  0
VERTEX
  5
4FB
100
AcDbEntity
  8
R_SHAFTS_2
 62
     7
100
AcDbVertex
100
AcDb2dVertex
 10
113.124878
 20
160.51854
 30
0.0
  0
VERTEX
  5
4FC
100
AcDbEntity
  8
R_SHAFTS_2
 62
     7
100
AcDbVertex
100
AcDb2dVertex
 10
113.333306
 20
160.51854
 30
0.0
  0
VERTEX
  5
4FD
100
AcDbEntity
  8
R_SHAFTS_2
 62
     7
100
AcDbVertex
100
AcDb2dVertex
 10
113.333306
 20
160.310284
 30
0.0
  0
VERTEX
  5
4FE
100
AcDbEntity
  8
R_SHAFTS_2
 62
     7
100
AcDbVertex
100
AcDb2dVertex
 10
113.124878
 20
160.310284
 30
0.0
  0
SEQEND
  5
4FF
100
AcDbEntity
  8
R_SHAFTS_2
 62
     7
  0
POLYLINE
  5
4F4
100
AcDbEntity
  8
R_SHAFTS_2
 62
     7
100
AcDb2dPolyline
 66
     1
 10
0.0
 20
0.0
 30
0.0
 70
     1
  0
VERTEX
  5
4F5
100
AcDbEntity
  8
R_SHAFTS_2
 62
     7
100
AcDbVertex
100
AcDb2dVertex
 10
124.908483
 20
155.332121
 30
0.0
  0
VERTEX
  5
4F6
100
AcDbEntity
  8
R_SHAFTS_2
 62
     7
100
AcDbVertex
100
AcDb2dVertex
 10
125.116566
 20
155.332121
 30
0.0
  0
VERTEX
  5
4F7
100
AcDbEntity
  8
R_SHAFTS_2
 62
     7
100
AcDbVertex
100
AcDb2dVertex
 10
125.116566
 20
155.124037
 30
0.0
  0
VERTEX
  5
4F8
100
AcDbEntity
  8
R_SHAFTS_2
 62
     7
100
AcDbVertex
100
AcDb2dVertex
 10
124.908483
 20
155.124037
 30
0.0
  0
SEQEND
  5
4F9
100
AcDbEntity
  8
R_SHAFTS_2
 62
     7
  0
POLYLINE
  5
4EE
100
AcDbEntity
  8
R_SHAFTS_2
 62
     7
100
AcDb2dPolyline
 66
     1
 10
0.0
 20
0.0
 30
0.0
 70
     1
  0
VERTEX
  5
4EF
100
AcDbEntity
  8
R_SHAFTS_2
 62
     7
100
AcDbVertex
100
AcDb2dVertex
 10
144.89107
 20
131.596791
 30
0.0
  0
VERTEX
  5
4F0
100
AcDbEntity
  8
R_SHAFTS_2
 62
     7
100
AcDbVertex
100
AcDb2dVertex
 10
145.099154
 20
131.596791
 30
0.0
  0
VERTEX
  5
4F1
100
AcDbEntity
  8
R_SHAFTS_2
 62
     7
100
AcDbVertex
100
AcDb2dVertex
 10
145.099154
 20
131.389052
 30
0.0
  0
VERTEX
  5
4F2
100
AcDbEntity
  8
R_SHAFTS_2
 62
     7
100
AcDbVertex
100
AcDb2dVertex
 10
144.89107
 20
131.389052
 30
0.0
  0
SEQEND
  5
4F3
100
AcDbEntity
  8
R_SHAFTS_2
 62
     7
  0
POLYLINE
  5
4E8
100
AcDbEntity
  8
R_SHAFTS_2
 62
     7
100
AcDb2dPolyline
 66
     1
 10
0.0
 20
0.0
 30
0.0
 70
     1
  0
VERTEX
  5
4E9
100
AcDbEntity
  8
R_SHAFTS_2
 62
     7
100
AcDbVertex
100
AcDb2dVertex
 10
157.715438
 20
103.163384
 30
0.0
  0
VERTEX
  5
4EA
100
AcDbEntity
  8
R_SHAFTS_2
 62
     7
100
AcDbVertex
100
AcDb2dVertex
 10
157.923522
 20
103.163384
 30
0.0
  0
VERTEX
  5
4EB
100
AcDbEntity
  8
R_SHAFTS_2
 62
     7
100
AcDbVertex
100
AcDb2dVertex
 10
157.923522
 20
102.954956
 30
0.0
  0
VERTEX
  5
4EC
100
AcDbEntity
  8
R_SHAFTS_2
 62
     7
100
AcDbVertex
100
AcDb2dVertex
 10
157.715438
 20
102.954956
 30
0.0
  0
SEQEND
  5
4ED
100
AcDbEntity
  8
R_SHAFTS_2
 62
     7
  0
POLYLINE
  5
4E2
100
AcDbEntity
  8
R_SHAFTS_2
 62
     7
100
AcDb2dPolyline
 66
     1
 10
0.0
 20
0.0
 30
0.0
 70
     1
  0
VERTEX
  5
4E3
100
AcDbEntity
  8
R_SHAFTS_2
 62
     7
100
AcDbVertex
100
AcDb2dVertex
 10
125.20855
 20
98.440503
 30
0.0
  0
VERTEX
  5
4E4
100
AcDbEntity
  8
R_SHAFTS_2
 62
     7
100
AcDbVertex
100
AcDb2dVertex
 10
125.416979
 20
98.440503
 30
0.0
  0
VERTEX
  5
4E5
100
AcDbEntity
  8
R_SHAFTS_2
 62
     7
100
AcDbVertex
100
AcDb2dVertex
 10
125.416979
 20
98.232075
 30
0.0
  0
VERTEX
  5
4E6
100
AcDbEntity
  8
R_SHAFTS_2
 62
     7
100
AcDbVertex
100
AcDb2dVertex
 10
125.20855
 20
98.232075
 30
0.0
  0
SEQEND
  5
4E7
100
AcDbEntity
  8
R_SHAFTS_2
 62
     7
  0
POLYLINE
  5
4DC
100
AcDbEntity
  8
R_SHAFTS_2
 62
     7
100
AcDb2dPolyline
 66
     1
 10
0.0
 20
0.0
 30
0.0
 70
     1
  0
VERTEX
  5
4DD
100
AcDbEntity
  8
R_SHAFTS_2
 62
     7
100
AcDbVertex
100
AcDb2dVertex
 10
127.118167
 20
78.562646
 30
0.0
  0
VERTEX
  5
4DE
100
AcDbEntity
  8
R_SHAFTS_2
 62
     7
100
AcDbVertex
100
AcDb2dVertex
 10
127.326595
 20
78.562646
 30
0.0
  0
VERTEX
  5
4DF
100
AcDbEntity
  8
R_SHAFTS_2
 62
     7
100
AcDbVertex
100
AcDb2dVertex
 10
127.326595
 20
78.354563
 30
0.0
  0
VERTEX
  5
4E0
100
AcDbEntity
  8
R_SHAFTS_2
 62
     7
100
AcDbVertex
100
AcDb2dVertex
 10
127.118167
 20
78.354563
 30
0.0
  0
SEQEND
  5
4E1
100
AcDbEntity
  8
R_SHAFTS_2
 62
     7
  0
POLYLINE
  5
4D6
100
AcDbEntity
  8
R_SHAFTS_2
 62
     7
100
AcDb2dPolyline
 66
     1
 10
0.0
 20
0.0
 30
0.0
 70
     1
  0
VERTEX
  5
4D7
100
AcDbEntity
  8
R_SHAFTS_2
 62
     7
100
AcDbVertex
100
AcDb2dVertex
 10
207.734435
 20
31.287324
 30
0.0
  0
VERTEX
  5
4D8
100
AcDbEntity
  8
R_SHAFTS_2
 62
     7
100
AcDbVertex
100
AcDb2dVertex
 10
207.942863
 20
31.287324
 30
0.0
  0
VERTEX
  5
4D9
100
AcDbEntity
  8
R_SHAFTS_2
 62
     7
100
AcDbVertex
100
AcDb2dVertex
 10
207.942863
 20
31.07924
 30
0.0
  0
VERTEX
  5
4DA
100
AcDbEntity
  8
R_SHAFTS_2
 62
     7
100
AcDbVertex
100
AcDb2dVertex
 10
207.734435
 20
31.07924
 30
0.0
  0
SEQEND
  5
4DB
100
AcDbEntity
  8
R_SHAFTS_2
 62
     7
  0
LINE
  5
4D5
100
AcDbEntity
  8
R_SHAFTS_2
 62
     7
100
AcDbLine
 10
70.736768
 20
203.2894
 30
0.0
 11
70.736768
 21
203.081316
 31
0.0
  0
LINE
  5
4D4
100
AcDbEntity
  8
R_SHAFTS_2
 62
     7
100
AcDbLine
 10
109.228475
 20
188.038652
 30
0.0
 11
109.228475
 21
187.830396
 31
0.0
  0
LINE
  5
4D3
100
AcDbEntity
  8
R_SHAFTS_2
 62
     7
100
AcDbLine
 10
120.431236
 20
194.549365
 30
0.0
 11
120.431236
 21
194.341281
 31
0.0
  0
LINE
  5
4D2
100
AcDbEntity
  8
R_SHAFTS_2
 62
     7
100
AcDbLine
 10
144.89107
 20
131.389052
 30
0.0
 11
144.89107
 21
131.596791
 31
0.0
  0
LINE
  5
4D1
100
AcDbEntity
  8
R_SHAFTS_2
 62
     7
100
AcDbLine
 10
157.715438
 20
102.954956
 30
0.0
 11
157.715438
 21
103.058998
 31
0.0
  0
POLYLINE
  5
4CB
100
AcDbEntity
  8
R_SHAFTS_2
 62
     7
100
AcDb2dPolyline
 66
     1
 10
0.0
 20
0.0
 30
0.0
 70
     1
  0
VERTEX
  5
4CC
100
AcDbEntity
  8
R_SHAFTS_2
 62
     7
100
AcDbVertex
100
AcDb2dVertex
 10
120.431236
 20
194.549365
 30
0.0
  0
VERTEX
  5
4CD
100
AcDbEntity
  8
R_SHAFTS_2
 62
     7
100
AcDbVertex
100
AcDb2dVertex
 10
120.639665
 20
194.549365
 30
0.0
  0
VERTEX
  5
4CE
100
AcDbEntity
  8
R_SHAFTS_2
 62
     7
100
AcDbVertex
100
AcDb2dVertex
 10
120.639665
 20
194.341281
 30
0.0
  0
VERTEX
  5
4CF
100
AcDbEntity
  8
R_SHAFTS_2
 62
     7
100
AcDbVertex
100
AcDb2dVertex
 10
120.431236
 20
194.540752
 30
0.0
  0
SEQEND
  5
4D0
100
AcDbEntity
  8
R_SHAFTS_2
 62
     7
  0
POLYLINE
  5
4C5
100
AcDbEntity
  8
R_SHAFTS_2
 62
     7
100
AcDb2dPolyline
 66
     1
 10
0.0
 20
0.0
 30
0.0
 70
     1
  0
VERTEX
  5
4C6
100
AcDbEntity
  8
R_SHAFTS_2
 62
     7
100
AcDbVertex
100
AcDb2dVertex
 10
185.975212
 20
78.519927
 30
0.0
  0
VERTEX
  5
4C7
100
AcDbEntity
  8
R_SHAFTS_2
 62
     7
100
AcDbVertex
100
AcDb2dVertex
 10
186.18364
 20
78.519927
 30
0.0
  0
VERTEX
  5
4C8
100
AcDbEntity
  8
R_SHAFTS_2
 62
     7
100
AcDbVertex
100
AcDb2dVertex
 10
186.18364
 20
78.311844
 30
0.0
  0
VERTEX
  5
4C9
100
AcDbEntity
  8
R_SHAFTS_2
 62
     7
100
AcDbVertex
100
AcDb2dVertex
 10
185.975212
 20
78.311844
 30
0.0
  0
SEQEND
  5
4CA
100
AcDbEntity
  8
R_SHAFTS_2
 62
     7
  0
POLYLINE
  5
4BF
100
AcDbEntity
  8
R_SHAFTS_2
 62
     7
100
AcDb2dPolyline
 66
     1
 10
0.0
 20
0.0
 30
0.0
 70
     1
  0
VERTEX
  5
4C0
100
AcDbEntity
  8
R_SHAFTS_2
 62
     7
100
AcDbVertex
100
AcDb2dVertex
 10
185.975212
 20
78.519927
 30
0.0
  0
VERTEX
  5
4C1
100
AcDbEntity
  8
R_SHAFTS_2
 62
     7
100
AcDbVertex
100
AcDb2dVertex
 10
186.18364
 20
78.519927
 30
0.0
  0
VERTEX
  5
4C2
100
AcDbEntity
  8
R_SHAFTS_2
 62
     7
100
AcDbVertex
100
AcDb2dVertex
 10
186.18364
 20
78.311844
 30
0.0
  0
VERTEX
  5
4C3
100
AcDbEntity
  8
R_SHAFTS_2
 62
     7
100
AcDbVertex
100
AcDb2dVertex
 10
185.975212
 20
78.311844
 30
0.0
  0
SEQEND
  5
4C4
100
AcDbEntity
  8
R_SHAFTS_2
 62
     7
  0
MTEXT
  5
4BE
100
AcDbEntity
  8
R_SHAFTS_2
 62
     7
100
AcDbMText
 10
8.547046
 20
234.0088
 30
0.0
 40
0.026247
 41
0.0
 71
     1
 72
     2
  1
\fMyriad Roman|b0|i0;\H0.0262;\C1;\U+0048\U+0049\U+0044\U+0044\U+0045\U+004E\U+0020\U+0046\U+004F\U+0052\U+0054\U+0055\U+004E\U+0045
  7
STD
210
0.0
220
0.0
230
1.0
 11
0.0
 21
1.0
 31
0.0
 73
     1
 44
1.0
  0
MTEXT
  5
4BD
100
AcDbEntity
  8
R_SHAFTS_2
 62
     7
100
AcDbMText
 10
30.208428
 20
279.508176
 30
0.0
 40
0.026247
 41
0.0
 71
     1
 72
     2
  1
\fMyriad Roman|b0|i0;\H0.0262;\C1;\U+0043\U+004F\U+004C\U+0055\U+004D\U+0042\U+0055\U+0053
  7
STD
210
0.0
220
0.0
230
1.0
 11
0.0
 21
1.0
 31
0.0
 73
     1
 44
1.0
  0
MTEXT
  5
4BC
100
AcDbEntity
  8
R_SHAFTS_2
 62
     7
100
AcDbMText
 10
58.459589
 20
254.898998
 30
0.0
 40
0.026247
 41
0.0
 71
     1
 72
     2
  1
\fMyriad Roman|b0|i0;\H0.0262;\C1;\U+0047\U+004F\U+004C\U+0044\U+0045\U+004E\U+0020\U+0047\U+0041\U+0054\U+0045
  7
STD
210
0.0
220
0.0
230
1.0
 11
0.0
 21
1.0
 31
0.0
 73
     1
 44
1.0
  0
MTEXT
  5
4BB
100
AcDbEntity
  8
R_SHAFTS_2
 62
     7
100
AcDbMText
 10
76.196319
 20
224.782834
 30
0.0
 40
0.026247
 41
0.0
 71
     1
 72
     2
  1
\fMyriad Roman|b0|i0;\H0.0262;\C1;\U+004F\U+004C\U+0044\U+0020\U+0042\U+0052\U+0049\U+0047
  7
STD
210
0.0
220
0.0
230
1.0
 11
0.0
 21
1.0
 31
0.0
 73
     1
 44
1.0
  0
MTEXT
  5
4BA
100
AcDbEntity
  8
R_SHAFTS_2
 62
     7
100
AcDbMText
 10
71.041595
 20
203.591191
 30
0.0
 40
0.026247
 41
0.0
 71
     1
 72
     2
  1
\fMyriad Roman|b0|i0;\H0.0262;\C1;\U+0048\U+0049\U+0047\U+0048\U+004C\U+0041\U+004E\U+0044
  7
STD
210
0.0
220
0.0
230
1.0
 11
0.0
 21
1.0
 31
0.0
 73
     1
 44
1.0
  0
MTEXT
  5
4B9
100
AcDbEntity
  8
R_SHAFTS_2
 62
     7
100
AcDbMText
 10
97.566935
 20
182.123767
 30
0.0
 40
0.026247
 41
0.0
 71
     1
 72
     2
  1
\fMyriad Roman|b0|i0;\H0.0262;\C1;\U+0053\U+0054\U+0041\U+0052
  7
STD
210
0.0
220
0.0
230
1.0
 11
0.0
 21
1.0
 31
0.0
 73
     1
 44
1.0
  0
MTEXT
  5
4B8
100
AcDbEntity
  8
R_SHAFTS_2
 62
     7
100
AcDbMText
 10
109.808565
 20
187.890168
 30
0.0
 40
0.026247
 41
0.0
 71
     1
 72
     2
  1
\fMyriad Roman|b0|i0;\H0.0262;\C1;\U+0042\U+0026\U+004D
  7
STD
210
0.0
220
0.0
230
1.0
 11
0.0
 21
1.0
 31
0.0
 73
     1
 44
1.0
  0
MTEXT
  5
4B7
100
AcDbEntity
  8
R_SHAFTS_2
 62
     7
100
AcDbMText
 10
113.607127
 20
160.168174
 30
0.0
 40
0.026247
 41
0.0
 71
     1
 72
     2
  1
\fMyriad Roman|b0|i0;\H0.0262;\C1;\U+0050\U+0049\U+0045\U+0052\U+0043\U+0045
  7
STD
210
0.0
220
0.0
230
1.0
 11
0.0
 21
1.0
 31
0.0
 73
     1
 44
1.0
  0
MTEXT
  5
4B6
100
AcDbEntity
  8
R_SHAFTS_2
 62
     7
100
AcDbMText
 10
125.409335
 20
155.324714
 30
0.0
 40
0.026247
 41
0.0
 71
     1
 72
     2
  1
\fMyriad Roman|b0|i0;\H0.0262;\C1;\U+0045\U+004C\U+004C\U+0049\U+0053\U+004F\U+004E
  7
STD
210
0.0
220
0.0
230
1.0
 11
0.0
 21
1.0
 31
0.0
 73
     1
 44
1.0
  0
MTEXT
  5
4B5
100
AcDbEntity
  8
R_SHAFTS_2
 62
     7
100
AcDbMText
 10
146.255264
 20
130.370681
 30
0.0
 40
0.026247
 41
0.0
 71
     1
 72
     2
  1
\fMyriad Roman|b0|i0;\H0.0262;\C1;\U+004D\U+0049\U+004C\U+004C\U+0049\U+004B\U+0045\U+004E
  7
STD
210
0.0
220
0.0
230
1.0
 11
0.0
 21
1.0
 31
0.0
 73
     1
 44
1.0
  0
MTEXT
  5
4B4
100
AcDbEntity
  8
R_SHAFTS_2
 62
     7
100
AcDbMText
 10
125.878902
 20
97.961635
 30
0.0
 40
0.026247
 41
0.0
 71
     1
 72
     2
  1
\fMyriad Roman|b0|i0;\H0.0262;\C1;\U+004D\U+0049\U+004C\U+004E\U+0041\U+0052\U+0049\U+0043\U+0048
  7
STD
210
0.0
220
0.0
230
1.0
 11
0.0
 21
1.0
 31
0.0
 73
     1
 44
1.0
  0
MTEXT
  5
4B3
100
AcDbEntity
  8
R_SHAFTS_2
 62
     7
100
AcDbMText
 10
159.233972
 20
102.264214
 30
0.0
 40
0.026247
 41
0.0
 71
     1
 72
     2
  1
\fMyriad Roman|b0|i0;\H0.0262;\C1;\U+004F\U+0052\U+004F\U+0020\U+0048\U+004F\U+004E\U+0044\U+004F
  7
STD
210
0.0
220
0.0
230
1.0
 11
0.0
 21
1.0
 31
0.0
 73
     1
 44
1.0
  0
MTEXT
  5
4B2
100
AcDbEntity
  8
R_SHAFTS_2
 62
     7
100
AcDbMText
 10
127.301037
 20
78.729734
 30
0.0
 40
0.026247
 41
0.0
 71
     1
 72
     2
  1
\fMyriad Roman|b0|i0;\H0.0262;\C1;\U+0037\U+0020\U+0053\U+0048\U+0041\U+0046\U+0054
  7
STD
210
0.0
220
0.0
230
1.0
 11
0.0
 21
1.0
 31
0.0
 73
     1
 44
1.0
  0
MTEXT
  5
4B1
100
AcDbEntity
  8
R_SHAFTS_2
 62
     7
100
AcDbMText
 10
208.261815
 20
31.55673
 30
0.0
 40
0.026247
 41
0.0
 71
     1
 72
     2
  1
\fMyriad Roman|b0|i0;\H0.0262;\C1;\U+0035\U+0020\U+0053\U+0048\U+0041\U+0046\U+0054
  7
STD
210
0.0
220
0.0
230
1.0
 11
0.0
 21
1.0
 31
0.0
 73
     1
 44
1.0
  0
MTEXT
  5
4B0
100
AcDbEntity
  8
R_SHAFTS_2
 62
     7
100
AcDbMText
 10
120.637878
 20
194.449285
 30
0.0
 40
0.026247
 41
0.0
 71
     1
 72
     2
  1
\fMyriad Roman|b0|i0;\H0.0262;\C1;\U+0042\U+0026\U+004D\U+0023\U+0032
  7
STD
210
0.0
220
0.0
230
1.0
 11
0.0
 21
1.0
 31
0.0
 73
     1
 44
1.0
  0
MTEXT
  5
4AF
100
AcDbEntity
  8
R_SHAFTS_2
 62
     7
100
AcDbMText
 10
186.05783
 20
78.955732
 30
0.0
 40
0.026247
 41
0.0
 71
     1
 72
     2
  1
\fMyriad Roman|b0|i0;\H0.0262;\C1;\U+0033\U+0020\U+0057\U+0049\U+004E\U+005A\U+0045
  7
STD
210
0.0
220
0.0
230
1.0
 11
0.0
 21
1.0
 31
0.0
 73
     1
 44
1.0
  0
MTEXT
  5
4AE
100
AcDbEntity
  8
R_SHAFTS_2
 62
     7
100
AcDbMText
 10
130.444687
 20
160.576762
 30
0.0
 40
0.026247
 41
0.0
 71
     1
 72
     2
  1
\fMyriad Roman|b0|i0;\H0.0262;\C1;\U+0023\U+0032\U+0020\U+0041\U+0049\U+0052\U+0020\U+0052\U+0041\U+0049\U+0053\U+0045\U+0020\U+002D\U+0020\U+0041\U+0050\U+0050\U+0052\U+004F\U+0058\U+0020\U+004C\U+004F\U+0043\U+0041\U+0054\U+0049\U+004F\U+004E
  7
STD
210
0.0
220
0.0
230
1.0
 11
0.0
 21
1.0
 31
0.0
 73
     1
 44
1.0
  0
POLYLINE
  5
4A9
100
AcDbEntity
  8
R_SHAFTS_2
 62
     7
100
AcDb2dPolyline
 66
     1
 10
0.0
 20
0.0
 30
0.0
  0
VERTEX
  5
4AA
100
AcDbEntity
  8
R_SHAFTS_2
 62
     7
100
AcDbVertex
100
AcDb2dVertex
 10
130.297301
 20
164.039083
 30
0.0
  0
VERTEX
  5
4AB
100
AcDbEntity
  8
R_SHAFTS_2
 62
     7
100
AcDbVertex
100
AcDb2dVertex
 10
128.840025
 20
157.273088
 30
0.0
  0
VERTEX
  5
4AC
100
AcDbEntity
  8
R_SHAFTS_2
 62
     7
100
AcDbVertex
100
AcDb2dVertex
 10
128.735984
 20
155.295086
 30
0.0
  0
SEQEND
  5
4AD
100
AcDbEntity
  8
R_SHAFTS_2
 62
     7
  0
POLYLINE
  5
49B
100
AcDbEntity
  8
T80SSILL
 62
     7
100
AcDb2dPolyline
 66
     1
 10
0.0
 20
0.0
 30
0.0
  0
VERTEX
  5
49C
100
AcDbEntity
  8
T80SSILL
 62
     7
100
AcDbVertex
100
AcDb2dVertex
 10
132.182457
 20
60.627824
 30
0.0
  0
VERTEX
  5
49D
100
AcDbEntity
  8
T80SSILL
 62
     7
100
AcDbVertex
100
AcDb2dVertex
 10
132.239301
 20
60.630924
 30
0.0
  0
VERTEX
  5
49E
100
AcDbEntity
  8
T80SSILL
 62
     7
100
AcDbVertex
100
AcDb2dVertex
 10
132.251704
 20
60.638848
 30
0.0
  0
VERTEX
  5
49F
100
AcDbEntity
  8
T80SSILL
 62
     7
100
AcDbVertex
100
AcDb2dVertex
 10
132.259283
 20
60.791466
 30
0.0
  0
VERTEX
  5
4A0
100
AcDbEntity
  8
T80SSILL
 62
     7
100
AcDbVertex
100
AcDb2dVertex
 10
132.305792
 20
60.845554
 30
0.0
  0
VERTEX
  5
4A1
100
AcDbEntity
  8
T80SSILL
 62
     7
100
AcDbVertex
100
AcDb2dVertex
 10
132.170055
 20
61.103936
 30
0.0
  0
VERTEX
  5
4A2
100
AcDbEntity
  8
T80SSILL
 62
     7
100
AcDbVertex
100
AcDb2dVertex
 10
132.670283
 20
61.038135
 30
0.0
  0
VERTEX
  5
4A3
100
AcDbEntity
  8
T80SSILL
 62
     7
100
AcDbVertex
100
AcDb2dVertex
 10
132.634109
 20
60.833496
 30
0.0
  0
VERTEX
  5
4A4
100
AcDbEntity
  8
T80SSILL
 62
     7
100
AcDbVertex
100
AcDb2dVertex
 10
132.699566
 20
60.744957
 30
0.0
  0
VERTEX
  5
4A5
100
AcDbEntity
  8
T80SSILL
 62
     7
100
AcDbVertex
100
AcDb2dVertex
 10
132.915918
 20
60.587172
 30
0.0
  0
VERTEX
  5
4A6
100
AcDbEntity
  8
T80SSILL
 62
     7
100
AcDbVertex
100
AcDb2dVertex
 10
133.139849
 20
60.502767
 30
0.0
  0
SEQEND
  5
4A7
100
AcDbEntity
  8
T80SSILL
 62
     7
  0
LINE
  5
49A
100
AcDbEntity
  8
T80SSILL
 62
     7
100
AcDbLine
 10
127.134703
 20
65.708995
 30
0.0
 11
127.323839
 21
65.621834
 31
0.0
  0
POLYLINE
  5
490
100
AcDbEntity
  8
T80SSILL
 62
     7
100
AcDb2dPolyline
 66
     1
 10
0.0
 20
0.0
 30
0.0
 70
     1
  0
VERTEX
  5
491
100
AcDbEntity
  8
T80SSILL
 62
     7
100
AcDbVertex
100
AcDb2dVertex
 10
127.282842
 20
65.954631
 30
0.0
  0
VERTEX
  5
492
100
AcDbEntity
  8
T80SSILL
 62
     7
100
AcDbVertex
100
AcDb2dVertex
 10
127.502984
 20
65.853
 30
0.0
  0
VERTEX
  5
493
100
AcDbEntity
  8
T80SSILL
 62
     7
100
AcDbVertex
100
AcDb2dVertex
 10
127.627696
 20
65.729666
 30
0.0
  0
VERTEX
  5
494
100
AcDbEntity
  8
T80SSILL
 62
     7
100
AcDbVertex
100
AcDb2dVertex
 10
127.622529
 20
65.653874
 30
0.0
  0
VERTEX
  5
495
100
AcDbEntity
  8
T80SSILL
 62
     7
100
AcDbVertex
100
AcDb2dVertex
 10
127.336241
 20
65.686258
 30
0.0
  0
VERTEX
  5
496
100
AcDbEntity
  8
T80SSILL
 62
     7
100
AcDbVertex
100
AcDb2dVertex
 10
127.321083
 20
65.668688
 30
0.0
  0
VERTEX
  5
497
100
AcDbEntity
  8
T80SSILL
 62
     7
100
AcDbVertex
100
AcDb2dVertex
 10
127.190169
 20
65.729321
 30
0.0
  0
VERTEX
  5
498
100
AcDbEntity
  8
T80SSILL
 62
     7
100
AcDbVertex
100
AcDb2dVertex
 10
127.266306
 20
65.90571
 30
0.0
  0
SEQEND
  5
499
100
AcDbEntity
  8
T80SSILL
 62
     7
  0
LINE
  5
48F
100
AcDbEntity
  8
T80SSILL
 62
     7
100
AcDbLine
 10
127.258038
 20
66.011819
 30
0.0
 11
127.434082
 21
65.930859
 31
0.0
  0
POLYLINE
  5
489
100
AcDbEntity
  8
T80SSILL
 62
     7
100
AcDb2dPolyline
 66
     1
 10
0.0
 20
0.0
 30
0.0
  0
VERTEX
  5
48A
100
AcDbEntity
  8
T80SSILL
 62
     7
100
AcDbVertex
100
AcDb2dVertex
 10
127.434082
 20
65.930859
 30
0.0
  0
VERTEX
  5
48B
100
AcDbEntity
  8
T80SSILL
 62
     7
100
AcDbVertex
100
AcDb2dVertex
 10
127.413067
 20
65.883317
 30
0.0
  0
VERTEX
  5
48C
100
AcDbEntity
  8
T80SSILL
 62
     7
100
AcDbVertex
100
AcDb2dVertex
 10
127.373104
 20
65.738968
 30
0.0
  0
VERTEX
  5
48D
100
AcDbEntity
  8
T80SSILL
 62
     7
100
AcDbVertex
100
AcDb2dVertex
 10
127.323839
 20
65.621834
 30
0.0
  0
SEQEND
  5
48E
100
AcDbEntity
  8
T80SSILL
 62
     7
  0
LINE
  5
488
100
AcDbEntity
  8
T80SSILL
 62
     7
100
AcDbLine
 10
127.258038
 20
66.011819
 30
0.0
 11
127.134703
 21
65.708995
 31
0.0
  0
LINE
  5
487
100
AcDbEntity
  8
T80SSILL
 62
     7
100
AcDbLine
 10
127.258038
 20
66.011819
 30
0.0
 11
127.282842
 21
65.954631
 31
0.0
  0
LINE
  5
486
100
AcDbEntity
  8
T80SSILL
 62
     7
100
AcDbLine
 10
127.190169
 20
65.729321
 30
0.0
 11
127.134703
 21
65.708995
 31
0.0
  0
LINE
  5
485
100
AcDbEntity
  8
T80SSILL
 62
     7
100
AcDbLine
 10
127.661114
 20
65.607365
 30
0.0
 11
127.622529
 21
65.653874
 31
0.0
  0
LINE
  5
484
100
AcDbEntity
  8
T80SSILL
 62
     7
100
AcDbLine
 10
127.670416
 20
65.745858
 30
0.0
 11
127.627696
 21
65.729666
 31
0.0
  0
LINE
  5
483
100
AcDbEntity
  8
T80SSILL
 62
     7
100
AcDbLine
 10
127.321083
 20
65.668688
 30
0.0
 11
127.323839
 21
65.621834
 31
0.0
  0
LINE
  5
482
100
AcDbEntity
  8
T80SSILL
 62
     7
100
AcDbLine
 10
127.434082
 20
65.930859
 30
0.0
 11
127.437183
 21
65.883317
 31
0.0
  0
MTEXT
  5
481
100
AcDbEntity
  8
T80SSILL
 62
     7
100
AcDbMText
 10
129.809475
 20
57.027996
 30
0.0
 40
0.041638
 41
0.0
 71
     1
 72
     2
  1
\fMyriad Roman|b0|i0;\H0.0416;\C6;\U+0042\U+004B\U+002D\U+0032\U+0036\U+0038\U+0039\U+002E\U+0036
  7
STD
210
0.0
220
0.0
230
1.0
 73
     1
 44
1.0
  0
POLYLINE
  5
47B
100
AcDbEntity
  8
T80SSILL
 62
     7
100
AcDb2dPolyline
 66
     1
 10
0.0
 20
0.0
 30
0.0
 70
     1
  0
VERTEX
  5
47C
100
AcDbEntity
  8
T80SSILL
 62
     7
100
AcDbVertex
100
AcDb2dVertex
 10
130.46301
 20
58.750936
 30
0.0
  0
VERTEX
  5
47D
100
AcDbEntity
  8
T80SSILL
 62
     7
100
AcDbVertex
100
AcDb2dVertex
 10
130.09783
 20
58.162169
 30
0.0
  0
VERTEX
  5
47E
100
AcDbEntity
  8
T80SSILL
 62
     7
100
AcDbVertex
100
AcDb2dVertex
 10
129.854262
 20
58.255187
 30
0.0
  0
VERTEX
  5
47F
100
AcDbEntity
  8
T80SSILL
 62
     7
100
AcDbVertex
100
AcDb2dVertex
 10
130.272152
 20
58.940416
 30
0.0
  0
SEQEND
  5
480
100
AcDbEntity
  8
T80SSILL
 62
     7
  0
POLYLINE
  5
430
100
AcDbEntity
  8
T80SSILL
 62
     7
100
AcDb2dPolyline
 66
     1
 10
0.0
 20
0.0
 30
0.0
  0
VERTEX
  5
431
100
AcDbEntity
  8
T80SSILL
 62
     7
100
AcDbVertex
100
AcDb2dVertex
 10
139.253516
 20
30.441208
 30
0.0
  0
VERTEX
  5
432
100
AcDbEntity
  8
T80SSILL
 62
     7
100
AcDbVertex
100
AcDb2dVertex
 10
139.253171
 20
30.446376
 30
0.0
  0
VERTEX
  5
433
100
AcDbEntity
  8
T80SSILL
 62
     7
100
AcDbVertex
100
AcDb2dVertex
 10
139.252482
 20
30.451888
 30
0.0
  0
VERTEX
  5
434
100
AcDbEntity
  8
T80SSILL
 62
     7
100
AcDbVertex
100
AcDb2dVertex
 10
139.251449
 20
30.457056
 30
0.0
  0
VERTEX
  5
435
100
AcDbEntity
  8
T80SSILL
 62
     7
100
AcDbVertex
100
AcDb2dVertex
 10
139.249726
 20
30.462568
 30
0.0
  0
VERTEX
  5
436
100
AcDbEntity
  8
T80SSILL
 62
     7
100
AcDbVertex
100
AcDb2dVertex
 10
139.247659
 20
30.467391
 30
0.0
  0
VERTEX
  5
437
100
AcDbEntity
  8
T80SSILL
 62
     7
100
AcDbVertex
100
AcDb2dVertex
 10
139.245247
 20
30.472214
 30
0.0
  0
VERTEX
  5
438
100
AcDbEntity
  8
T80SSILL
 62
     7
100
AcDbVertex
100
AcDb2dVertex
 10
139.242147
 20
30.476693
 30
0.0
  0
VERTEX
  5
439
100
AcDbEntity
  8
T80SSILL
 62
     7
100
AcDbVertex
100
AcDb2dVertex
 10
139.239046
 20
30.481171
 30
0.0
  0
VERTEX
  5
43A
100
AcDbEntity
  8
T80SSILL
 62
     7
100
AcDbVertex
100
AcDb2dVertex
 10
139.235257
 20
30.485305
 30
0.0
  0
VERTEX
  5
43B
100
AcDbEntity
  8
T80SSILL
 62
     7
100
AcDbVertex
100
AcDb2dVertex
 10
139.231123
 20
30.488751
 30
0.0
  0
VERTEX
  5
43C
100
AcDbEntity
  8
T80SSILL
 62
     7
100
AcDbVertex
100
AcDb2dVertex
 10
139.226988
 20
30.492196
 30
0.0
  0
VERTEX
  5
43D
100
AcDbEntity
  8
T80SSILL
 62
     7
100
AcDbVertex
100
AcDb2dVertex
 10
139.222165
 20
30.495296
 30
0.0
  0
VERTEX
  5
43E
100
AcDbEntity
  8
T80SSILL
 62
     7
100
AcDbVertex
100
AcDb2dVertex
 10
139.217342
 20
30.497708
 30
0.0
  0
VERTEX
  5
43F
100
AcDbEntity
  8
T80SSILL
 62
     7
100
AcDbVertex
100
AcDb2dVertex
 10
139.212519
 20
30.499775
 30
0.0
  0
VERTEX
  5
440
100
AcDbEntity
  8
T80SSILL
 62
     7
100
AcDbVertex
100
AcDb2dVertex
 10
139.207351
 20
30.501497
 30
0.0
  0
VERTEX
  5
441
100
AcDbEntity
  8
T80SSILL
 62
     7
100
AcDbVertex
100
AcDb2dVertex
 10
139.201839
 20
30.502531
 30
0.0
  0
VERTEX
  5
442
100
AcDbEntity
  8
T80SSILL
 62
     7
100
AcDbVertex
100
AcDb2dVertex
 10
139.196672
 20
30.50322
 30
0.0
  0
VERTEX
  5
443
100
AcDbEntity
  8
T80SSILL
 62
     7
100
AcDbVertex
100
AcDb2dVertex
 10
139.191159
 20
30.503564
 30
0.0
  0
VERTEX
  5
444
100
AcDbEntity
  8
T80SSILL
 62
     7
100
AcDbVertex
100
AcDb2dVertex
 10
139.185647
 20
30.50322
 30
0.0
  0
VERTEX
  5
445
100
AcDbEntity
  8
T80SSILL
 62
     7
100
AcDbVertex
100
AcDb2dVertex
 10
139.180135
 20
30.502531
 30
0.0
  0
VERTEX
  5
446
100
AcDbEntity
  8
T80SSILL
 62
     7
100
AcDbVertex
100
AcDb2dVertex
 10
139.174967
 20
30.501497
 30
0.0
  0
VERTEX
  5
447
100
AcDbEntity
  8
T80SSILL
 62
     7
100
AcDbVertex
100
AcDb2dVertex
 10
139.1698
 20
30.499775
 30
0.0
  0
VERTEX
  5
448
100
AcDbEntity
  8
T80SSILL
 62
     7
100
AcDbVertex
100
AcDb2dVertex
 10
139.164632
 20
30.497708
 30
0.0
  0
VERTEX
  5
449
100
AcDbEntity
  8
T80SSILL
 62
     7
100
AcDbVertex
100
AcDb2dVertex
 10
139.159809
 20
30.495296
 30
0.0
  0
VERTEX
  5
44A
100
AcDbEntity
  8
T80SSILL
 62
     7
100
AcDbVertex
100
AcDb2dVertex
 10
139.15533
 20
30.492196
 30
0.0
  0
VERTEX
  5
44B
100
AcDbEntity
  8
T80SSILL
 62
     7
100
AcDbVertex
100
AcDb2dVertex
 10
139.150852
 20
30.488751
 30
0.0
  0
VERTEX
  5
44C
100
AcDbEntity
  8
T80SSILL
 62
     7
100
AcDbVertex
100
AcDb2dVertex
 10
139.146718
 20
30.485305
 30
0.0
  0
VERTEX
  5
44D
100
AcDbEntity
  8
T80SSILL
 62
     7
100
AcDbVertex
100
AcDb2dVertex
 10
139.143273
 20
30.481171
 30
0.0
  0
VERTEX
  5
44E
100
AcDbEntity
  8
T80SSILL
 62
     7
100
AcDbVertex
100
AcDb2dVertex
 10
139.139827
 20
30.476693
 30
0.0
  0
VERTEX
  5
44F
100
AcDbEntity
  8
T80SSILL
 62
     7
100
AcDbVertex
100
AcDb2dVertex
 10
139.137071
 20
30.472214
 30
0.0
  0
VERTEX
  5
450
100
AcDbEntity
  8
T80SSILL
 62
     7
100
AcDbVertex
100
AcDb2dVertex
 10
139.134315
 20
30.467391
 30
0.0
  0
VERTEX
  5
451
100
AcDbEntity
  8
T80SSILL
 62
     7
100
AcDbVertex
100
AcDb2dVertex
 10
139.132248
 20
30.462568
 30
0.0
  0
VERTEX
  5
452
100
AcDbEntity
  8
T80SSILL
 62
     7
100
AcDbVertex
100
AcDb2dVertex
 10
139.13087
 20
30.457056
 30
0.0
  0
VERTEX
  5
453
100
AcDbEntity
  8
T80SSILL
 62
     7
100
AcDbVertex
100
AcDb2dVertex
 10
139.129492
 20
30.451888
 30
0.0
  0
VERTEX
  5
454
100
AcDbEntity
  8
T80SSILL
 62
     7
100
AcDbVertex
100
AcDb2dVertex
 10
139.128803
 20
30.446376
 30
0.0
  0
VERTEX
  5
455
100
AcDbEntity
  8
T80SSILL
 62
     7
100
AcDbVertex
100
AcDb2dVertex
 10
139.128459
 20
30.441208
 30
0.0
  0
VERTEX
  5
456
100
AcDbEntity
  8
T80SSILL
 62
     7
100
AcDbVertex
100
AcDb2dVertex
 10
139.128803
 20
30.435696
 30
0.0
  0
VERTEX
  5
457
100
AcDbEntity
  8
T80SSILL
 62
     7
100
AcDbVertex
100
AcDb2dVertex
 10
139.129492
 20
30.430184
 30
0.0
  0
VERTEX
  5
458
100
AcDbEntity
  8
T80SSILL
 62
     7
100
AcDbVertex
100
AcDb2dVertex
 10
139.13087
 20
30.425016
 30
0.0
  0
VERTEX
  5
459
100
AcDbEntity
  8
T80SSILL
 62
     7
100
AcDbVertex
100
AcDb2dVertex
 10
139.132248
 20
30.419849
 30
0.0
  0
VERTEX
  5
45A
100
AcDbEntity
  8
T80SSILL
 62
     7
100
AcDbVertex
100
AcDb2dVertex
 10
139.134315
 20
30.414681
 30
0.0
  0
VERTEX
  5
45B
100
AcDbEntity
  8
T80SSILL
 62
     7
100
AcDbVertex
100
AcDb2dVertex
 10
139.137071
 20
30.409858
 30
0.0
  0
VERTEX
  5
45C
100
AcDbEntity
  8
T80SSILL
 62
     7
100
AcDbVertex
100
AcDb2dVertex
 10
139.139827
 20
30.405379
 30
0.0
  0
VERTEX
  5
45D
100
AcDbEntity
  8
T80SSILL
 62
     7
100
AcDbVertex
100
AcDb2dVertex
 10
139.143273
 20
30.400901
 30
0.0
  0
VERTEX
  5
45E
100
AcDbEntity
  8
T80SSILL
 62
     7
100
AcDbVertex
100
AcDb2dVertex
 10
139.146718
 20
30.396766
 30
0.0
  0
VERTEX
  5
45F
100
AcDbEntity
  8
T80SSILL
 62
     7
100
AcDbVertex
100
AcDb2dVertex
 10
139.150852
 20
30.393321
 30
0.0
  0
VERTEX
  5
460
100
AcDbEntity
  8
T80SSILL
 62
     7
100
AcDbVertex
100
AcDb2dVertex
 10
139.15533
 20
30.389876
 30
0.0
  0
VERTEX
  5
461
100
AcDbEntity
  8
T80SSILL
 62
     7
100
AcDbVertex
100
AcDb2dVertex
 10
139.159809
 20
30.38712
 30
0.0
  0
VERTEX
  5
462
100
AcDbEntity
  8
T80SSILL
 62
     7
100
AcDbVertex
100
AcDb2dVertex
 10
139.164632
 20
30.384364
 30
0.0
  0
VERTEX
  5
463
100
AcDbEntity
  8
T80SSILL
 62
     7
100
AcDbVertex
100
AcDb2dVertex
 10
139.1698
 20
30.382297
 30
0.0
  0
VERTEX
  5
464
100
AcDbEntity
  8
T80SSILL
 62
     7
100
AcDbVertex
100
AcDb2dVertex
 10
139.174967
 20
30.380575
 30
0.0
  0
VERTEX
  5
465
100
AcDbEntity
  8
T80SSILL
 62
     7
100
AcDbVertex
100
AcDb2dVertex
 10
139.180135
 20
30.379541
 30
0.0
  0
VERTEX
  5
466
100
AcDbEntity
  8
T80SSILL
 62
     7
100
AcDbVertex
100
AcDb2dVertex
 10
139.185647
 20
30.378852
 30
0.0
  0
VERTEX
  5
467
100
AcDbEntity
  8
T80SSILL
 62
     7
100
AcDbVertex
100
AcDb2dVertex
 10
139.191159
 20
30.378507
 30
0.0
  0
VERTEX
  5
468
100
AcDbEntity
  8
T80SSILL
 62
     7
100
AcDbVertex
100
AcDb2dVertex
 10
139.196672
 20
30.378852
 30
0.0
  0
VERTEX
  5
469
100
AcDbEntity
  8
T80SSILL
 62
     7
100
AcDbVertex
100
AcDb2dVertex
 10
139.201839
 20
30.379541
 30
0.0
  0
VERTEX
  5
46A
100
AcDbEntity
  8
T80SSILL
 62
     7
100
AcDbVertex
100
AcDb2dVertex
 10
139.207351
 20
30.380575
 30
0.0
  0
VERTEX
  5
46B
100
AcDbEntity
  8
T80SSILL
 62
     7
100
AcDbVertex
100
AcDb2dVertex
 10
139.212519
 20
30.382297
 30
0.0
  0
VERTEX
  5
46C
100
AcDbEntity
  8
T80SSILL
 62
     7
100
AcDbVertex
100
AcDb2dVertex
 10
139.217342
 20
30.384364
 30
0.0
  0
VERTEX
  5
46D
100
AcDbEntity
  8
T80SSILL
 62
     7
100
AcDbVertex
100
AcDb2dVertex
 10
139.222165
 20
30.38712
 30
0.0
  0
VERTEX
  5
46E
100
AcDbEntity
  8
T80SSILL
 62
     7
100
AcDbVertex
100
AcDb2dVertex
 10
139.226988
 20
30.389876
 30
0.0
  0
VERTEX
  5
46F
100
AcDbEntity
  8
T80SSILL
 62
     7
100
AcDbVertex
100
AcDb2dVertex
 10
139.231123
 20
30.393321
 30
0.0
  0
VERTEX
  5
470
100
AcDbEntity
  8
T80SSILL
 62
     7
100
AcDbVertex
100
AcDb2dVertex
 10
139.235257
 20
30.396766
 30
0.0
  0
VERTEX
  5
471
100
AcDbEntity
  8
T80SSILL
 62
     7
100
AcDbVertex
100
AcDb2dVertex
 10
139.239046
 20
30.400901
 30
0.0
  0
VERTEX
  5
472
100
AcDbEntity
  8
T80SSILL
 62
     7
100
AcDbVertex
100
AcDb2dVertex
 10
139.242147
 20
30.405379
 30
0.0
  0
VERTEX
  5
473
100
AcDbEntity
  8
T80SSILL
 62
     7
100
AcDbVertex
100
AcDb2dVertex
 10
139.245247
 20
30.409858
 30
0.0
  0
VERTEX
  5
474
100
AcDbEntity
  8
T80SSILL
 62
     7
100
AcDbVertex
100
AcDb2dVertex
 10
139.247659
 20
30.414681
 30
0.0
  0
VERTEX
  5
475
100
AcDbEntity
  8
T80SSILL
 62
     7
100
AcDbVertex
100
AcDb2dVertex
 10
139.249726
 20
30.419849
 30
0.0
  0
VERTEX
  5
476
100
AcDbEntity
  8
T80SSILL
 62
     7
100
AcDbVertex
100
AcDb2dVertex
 10
139.251449
 20
30.425016
 30
0.0
  0
VERTEX
  5
477
100
AcDbEntity
  8
T80SSILL
 62
     7
100
AcDbVertex
100
AcDb2dVertex
 10
139.252482
 20
30.430184
 30
0.0
  0
VERTEX
  5
478
100
AcDbEntity
  8
T80SSILL
 62
     7
100
AcDbVertex
100
AcDb2dVertex
 10
139.253171
 20
30.435696
 30
0.0
  0
VERTEX
  5
479
100
AcDbEntity
  8
T80SSILL
 62
     7
100
AcDbVertex
100
AcDb2dVertex
 10
139.253516
 20
30.441208
 30
0.0
  0
SEQEND
  5
47A
100
AcDbEntity
  8
T80SSILL
 62
     7
  0
POLYLINE
  5
425
100
AcDbEntity
  8
T80SSILL
 62
     7
100
AcDb2dPolyline
 66
     1
 10
0.0
 20
0.0
 30
0.0
 70
     1
  0
VERTEX
  5
426
100
AcDbEntity
  8
T80SSILL
 62
     7
100
AcDbVertex
100
AcDb2dVertex
 10
139.388908
 20
30.348535
 30
0.0
  0
VERTEX
  5
427
100
AcDbEntity
  8
T80SSILL
 62
     7
100
AcDbVertex
100
AcDb2dVertex
 10
139.269019
 20
30.344401
 30
0.0
  0
VERTEX
  5
428
100
AcDbEntity
  8
T80SSILL
 62
     7
100
AcDbVertex
100
AcDb2dVertex
 10
139.186336
 20
30.305471
 30
0.0
  0
VERTEX
  5
429
100
AcDbEntity
  8
T80SSILL
 62
     7
100
AcDbVertex
100
AcDb2dVertex
 10
139.08505
 20
30.343712
 30
0.0
  0
VERTEX
  5
42A
100
AcDbEntity
  8
T80SSILL
 62
     7
100
AcDbVertex
100
AcDb2dVertex
 10
139.074715
 20
30.426394
 30
0.0
  0
VERTEX
  5
42B
100
AcDbEntity
  8
T80SSILL
 62
     7
100
AcDbVertex
100
AcDb2dVertex
 10
139.081261
 20
30.480482
 30
0.0
  0
VERTEX
  5
42C
100
AcDbEntity
  8
T80SSILL
 62
     7
100
AcDbVertex
100
AcDb2dVertex
 10
139.160843
 20
30.557997
 30
0.0
  0
VERTEX
  5
42D
100
AcDbEntity
  8
T80SSILL
 62
     7
100
AcDbVertex
100
AcDb2dVertex
 10
139.322762
 20
30.497708
 30
0.0
  0
VERTEX
  5
42E
100
AcDbEntity
  8
T80SSILL
 62
     7
100
AcDbVertex
100
AcDb2dVertex
 10
139.391664
 20
30.48186
 30
0.0
  0
SEQEND
  5
42F
100
AcDbEntity
  8
T80SSILL
 62
     7
  0
POLYLINE
  5
41D
100
AcDbEntity
  8
T80SSILL
 62
     7
100
AcDb2dPolyline
 66
     1
 10
0.0
 20
0.0
 30
0.0
 70
     1
  0
VERTEX
  5
41E
100
AcDbEntity
  8
T80SSILL
 62
     7
100
AcDbVertex
100
AcDb2dVertex
 10
139.435761
 20
30.283423
 30
0.0
  0
VERTEX
  5
41F
100
AcDbEntity
  8
T80SSILL
 62
     7
100
AcDbVertex
100
AcDb2dVertex
 10
139.081261
 20
30.291691
 30
0.0
  0
VERTEX
  5
420
100
AcDbEntity
  8
T80SSILL
 62
     7
100
AcDbVertex
100
AcDb2dVertex
 10
139.069548
 20
30.39401
 30
0.0
  0
VERTEX
  5
421
100
AcDbEntity
  8
T80SSILL
 62
     7
100
AcDbVertex
100
AcDb2dVertex
 10
139.082639
 20
30.489784
 30
0.0
  0
VERTEX
  5
422
100
AcDbEntity
  8
T80SSILL
 62
     7
100
AcDbVertex
100
AcDb2dVertex
 10
139.192537
 20
30.605195
 30
0.0
  0
VERTEX
  5
423
100
AcDbEntity
  8
T80SSILL
 62
     7
100
AcDbVertex
100
AcDb2dVertex
 10
139.431972
 20
30.551451
 30
0.0
  0
SEQEND
  5
424
100
AcDbEntity
  8
T80SSILL
 62
     7
  0
POLYLINE
  5
408
100
AcDbEntity
  8
T80SSILL
 62
     7
100
AcDb2dPolyline
 66
     1
 10
0.0
 20
0.0
 30
0.0
 70
     1
  0
VERTEX
  5
409
100
AcDbEntity
  8
T80SSILL
 62
     7
100
AcDbVertex
100
AcDb2dVertex
 10
126.235878
 20
109.320803
 30
0.0
  0
VERTEX
  5
40A
100
AcDbEntity
  8
T80SSILL
 62
     7
100
AcDbVertex
100
AcDb2dVertex
 10
126.158019
 20
109.132012
 30
0.0
  0
VERTEX
  5
40B
100
AcDbEntity
  8
T80SSILL
 62
     7
100
AcDbVertex
100
AcDb2dVertex
 10
126.211073
 20
105.102973
 30
0.0
  0
VERTEX
  5
40C
100
AcDbEntity
  8
T80SSILL
 62
     7
100
AcDbVertex
100
AcDb2dVertex
 10
126.098074
 20
104.767076
 30
0.0
  0
VERTEX
  5
40D
100
AcDbEntity
  8
T80SSILL
 62
     7
100
AcDbVertex
100
AcDb2dVertex
 10
126.000233
 20
104.61377
 30
0.0
  0
VERTEX
  5
40E
100
AcDbEntity
  8
T80SSILL
 62
     7
100
AcDbVertex
100
AcDb2dVertex
 10
125.248513
 20
103.907869
 30
0.0
  0
VERTEX
  5
40F
100
AcDbEntity
  8
T80SSILL
 62
     7
100
AcDbVertex
100
AcDb2dVertex
 10
125.148606
 20
104.0095
 30
0.0
  0
VERTEX
  5
410
100
AcDbEntity
  8
T80SSILL
 62
     7
100
AcDbVertex
100
AcDb2dVertex
 10
124.971183
 20
104.593443
 30
0.0
  0
VERTEX
  5
411
100
AcDbEntity
  8
T80SSILL
 62
     7
100
AcDbVertex
100
AcDb2dVertex
 10
125.025271
 20
104.804972
 30
0.0
  0
VERTEX
  5
412
100
AcDbEntity
  8
T80SSILL
 62
     7
100
AcDbVertex
100
AcDb2dVertex
 10
124.967394
 20
105.110208
 30
0.0
  0
VERTEX
  5
413
100
AcDbEntity
  8
T80SSILL
 62
     7
100
AcDbVertex
100
AcDb2dVertex
 10
124.403432
 20
106.911993
 30
0.0
  0
VERTEX
  5
414
100
AcDbEntity
  8
T80SSILL
 62
     7
100
AcDbVertex
100
AcDb2dVertex
 10
124.22532
 20
107.161418
 30
0.0
  0
VERTEX
  5
415
100
AcDbEntity
  8
T80SSILL
 62
     7
100
AcDbVertex
100
AcDb2dVertex
 10
124.074769
 20
107.519019
 30
0.0
  0
VERTEX
  5
416
100
AcDbEntity
  8
T80SSILL
 62
     7
100
AcDbVertex
100
AcDb2dVertex
 10
124.047898
 20
107.772578
 30
0.0
  0
VERTEX
  5
417
100
AcDbEntity
  8
T80SSILL
 62
     7
100
AcDbVertex
100
AcDb2dVertex
 10
124.117144
 20
108.060932
 30
0.0
  0
VERTEX
  5
418
100
AcDbEntity
  8
T80SSILL
 62
     7
100
AcDbVertex
100
AcDb2dVertex
 10
124.293877
 20
108.284863
 30
0.0
  0
VERTEX
  5
419
100
AcDbEntity
  8
T80SSILL
 62
     7
100
AcDbVertex
100
AcDb2dVertex
 10
125.763211
 20
109.329416
 30
0.0
  0
VERTEX
  5
41A
100
AcDbEntity
  8
T80SSILL
 62
     7
100
AcDbVertex
100
AcDb2dVertex
 10
126.039507
 20
109.320114
 30
0.0
  0
VERTEX
  5
41B
100
AcDbEntity
  8
T80SSILL
 62
     7
100
AcDbVertex
100
AcDb2dVertex
 10
126.208317
 20
109.438626
 30
0.0
  0
SEQEND
  5
41C
100
AcDbEntity
  8
T80SSILL
 62
     7
  0
POLYLINE
  5
3E1
100
AcDbEntity
  8
T80SSILL
 62
     7
100
AcDb2dPolyline
 66
     1
 10
0.0
 20
0.0
 30
0.0
 70
     1
  0
VERTEX
  5
3E2
100
AcDbEntity
  8
T80SSILL
 62
     7
100
AcDbVertex
100
AcDb2dVertex
 10
126.308914
 20
90.490945
 30
0.0
  0
VERTEX
  5
3E3
100
AcDbEntity
  8
T80SSILL
 62
     7
100
AcDbVertex
100
AcDb2dVertex
 10
126.40641
 20
90.414464
 30
0.0
  0
VERTEX
  5
3E4
100
AcDbEntity
  8
T80SSILL
 62
     7
100
AcDbVertex
100
AcDb2dVertex
 10
126.424669
 20
89.552501
 30
0.0
  0
VERTEX
  5
3E5
100
AcDbEntity
  8
T80SSILL
 62
     7
100
AcDbVertex
100
AcDb2dVertex
 10
126.261716
 20
89.422621
 30
0.0
  0
VERTEX
  5
3E6
100
AcDbEntity
  8
T80SSILL
 62
     7
100
AcDbVertex
100
AcDb2dVertex
 10
126.345776
 20
89.302732
 30
0.0
  0
VERTEX
  5
3E7
100
AcDbEntity
  8
T80SSILL
 62
     7
100
AcDbVertex
100
AcDb2dVertex
 10
126.422257
 20
89.350618
 30
0.0
  0
VERTEX
  5
3E8
100
AcDbEntity
  8
T80SSILL
 62
     7
100
AcDbVertex
100
AcDb2dVertex
 10
126.456019
 20
86.989006
 30
0.0
  0
VERTEX
  5
3E9
100
AcDbEntity
  8
T80SSILL
 62
     7
100
AcDbVertex
100
AcDb2dVertex
 10
126.293066
 20
86.867049
 30
0.0
  0
VERTEX
  5
3EA
100
AcDbEntity
  8
T80SSILL
 62
     7
100
AcDbVertex
100
AcDb2dVertex
 10
126.36748
 20
86.754395
 30
0.0
  0
VERTEX
  5
3EB
100
AcDbEntity
  8
T80SSILL
 62
     7
100
AcDbVertex
100
AcDb2dVertex
 10
126.458086
 20
86.819851
 30
0.0
  0
VERTEX
  5
3EC
100
AcDbEntity
  8
T80SSILL
 62
     7
100
AcDbVertex
100
AcDb2dVertex
 10
126.498739
 20
84.411041
 30
0.0
  0
VERTEX
  5
3ED
100
AcDbEntity
  8
T80SSILL
 62
     7
100
AcDbVertex
100
AcDb2dVertex
 10
126.345776
 20
84.298041
 30
0.0
  0
VERTEX
  5
3EE
100
AcDbEntity
  8
T80SSILL
 62
     7
100
AcDbVertex
100
AcDb2dVertex
 10
126.433971
 20
84.174018
 30
0.0
  0
VERTEX
  5
3EF
100
AcDbEntity
  8
T80SSILL
 62
     7
100
AcDbVertex
100
AcDb2dVertex
 10
126.509074
 20
84.212948
 30
0.0
  0
VERTEX
  5
3F0
100
AcDbEntity
  8
T80SSILL
 62
     7
100
AcDbVertex
100
AcDb2dVertex
 10
126.532845
 20
81.945041
 30
0.0
  0
VERTEX
  5
3F1
100
AcDbEntity
  8
T80SSILL
 62
     7
100
AcDbVertex
100
AcDb2dVertex
 10
126.375404
 20
81.915758
 30
0.0
  0
VERTEX
  5
3F2
100
AcDbEntity
  8
T80SSILL
 62
     7
100
AcDbVertex
100
AcDb2dVertex
 10
126.374715
 20
81.747637
 30
0.0
  0
VERTEX
  5
3F3
100
AcDbEntity
  8
T80SSILL
 62
     7
100
AcDbVertex
100
AcDb2dVertex
 10
126.532156
 20
81.686315
 30
0.0
  0
VERTEX
  5
3F4
100
AcDbEntity
  8
T80SSILL
 62
     7
100
AcDbVertex
100
AcDb2dVertex
 10
126.548692
 20
80.824352
 30
0.0
  0
VERTEX
  5
3F5
100
AcDbEntity
  8
T80SSILL
 62
     7
100
AcDbVertex
100
AcDb2dVertex
 10
126.4133
 20
80.539787
 30
0.0
  0
VERTEX
  5
3F6
100
AcDbEntity
  8
T80SSILL
 62
     7
100
AcDbVertex
100
AcDb2dVertex
 10
126.390563
 20
80.354441
 30
0.0
  0
VERTEX
  5
3F7
100
AcDbEntity
  8
T80SSILL
 62
     7
100
AcDbVertex
100
AcDb2dVertex
 10
126.226921
 20
80.156348
 30
0.0
  0
VERTEX
  5
3F8
100
AcDbEntity
  8
T80SSILL
 62
     7
100
AcDbVertex
100
AcDb2dVertex
 10
125.943389
 20
79.927249
 30
0.0
  0
VERTEX
  5
3F9
100
AcDbEntity
  8
T80SSILL
 62
     7
100
AcDbVertex
100
AcDb2dVertex
 10
125.836247
 20
79.808738
 30
0.0
  0
VERTEX
  5
3FA
100
AcDbEntity
  8
T80SSILL
 62
     7
100
AcDbVertex
100
AcDb2dVertex
 10
125.764933
 20
79.840777
 30
0.0
  0
VERTEX
  5
3FB
100
AcDbEntity
  8
T80SSILL
 62
     7
100
AcDbVertex
100
AcDb2dVertex
 10
125.747019
 20
81.362131
 30
0.0
  0
VERTEX
  5
3FC
100
AcDbEntity
  8
T80SSILL
 62
     7
100
AcDbVertex
100
AcDb2dVertex
 10
126.005056
 20
81.42931
 30
0.0
  0
VERTEX
  5
3FD
100
AcDbEntity
  8
T80SSILL
 62
     7
100
AcDbVertex
100
AcDb2dVertex
 10
125.979218
 20
81.551267
 30
0.0
  0
VERTEX
  5
3FE
100
AcDbEntity
  8
T80SSILL
 62
     7
100
AcDbVertex
100
AcDb2dVertex
 10
125.734961
 20
81.671501
 30
0.0
  0
VERTEX
  5
3FF
100
AcDbEntity
  8
T80SSILL
 62
     7
100
AcDbVertex
100
AcDb2dVertex
 10
125.702922
 20
85.552056
 30
0.0
  0
VERTEX
  5
400
100
AcDbEntity
  8
T80SSILL
 62
     7
100
AcDbVertex
100
AcDb2dVertex
 10
125.868631
 20
85.759106
 30
0.0
  0
VERTEX
  5
401
100
AcDbEntity
  8
T80SSILL
 62
     7
100
AcDbVertex
100
AcDb2dVertex
 10
125.828668
 20
85.921715
 30
0.0
  0
VERTEX
  5
402
100
AcDbEntity
  8
T80SSILL
 62
     7
100
AcDbVertex
100
AcDb2dVertex
 10
125.698443
 20
85.990272
 30
0.0
  0
VERTEX
  5
403
100
AcDbEntity
  8
T80SSILL
 62
     7
100
AcDbVertex
100
AcDb2dVertex
 10
125.655379
 20
88.730157
 30
0.0
  0
VERTEX
  5
404
100
AcDbEntity
  8
T80SSILL
 62
     7
100
AcDbVertex
100
AcDb2dVertex
 10
125.750808
 20
89.176986
 30
0.0
  0
VERTEX
  5
405
100
AcDbEntity
  8
T80SSILL
 62
     7
100
AcDbVertex
100
AcDb2dVertex
 10
125.755632
 20
89.365777
 30
0.0
  0
VERTEX
  5
406
100
AcDbEntity
  8
T80SSILL
 62
     7
100
AcDbVertex
100
AcDb2dVertex
 10
125.824878
 20
89.494279
 30
0.0
  0
SEQEND
  5
407
100
AcDbEntity
  8
T80SSILL
 62
     7
  0
POLYLINE
  5
3CD
100
AcDbEntity
  8
T80SSILL
 62
     7
100
AcDb2dPolyline
 66
     1
 10
0.0
 20
0.0
 30
0.0
 70
     1
  0
VERTEX
  5
3CE
100
AcDbEntity
  8
T80SSILL
 62
     7
100
AcDbVertex
100
AcDb2dVertex
 10
126.340264
 20
97.980583
 30
0.0
  0
VERTEX
  5
3CF
100
AcDbEntity
  8
T80SSILL
 62
     7
100
AcDbVertex
100
AcDb2dVertex
 10
126.319594
 20
97.166162
 30
0.0
  0
VERTEX
  5
3D0
100
AcDbEntity
  8
T80SSILL
 62
     7
100
AcDbVertex
100
AcDb2dVertex
 10
126.142171
 20
97.041105
 30
0.0
  0
VERTEX
  5
3D1
100
AcDbEntity
  8
T80SSILL
 62
     7
100
AcDbVertex
100
AcDb2dVertex
 10
126.22761
 20
96.926039
 30
0.0
  0
VERTEX
  5
3D2
100
AcDbEntity
  8
T80SSILL
 62
     7
100
AcDbVertex
100
AcDb2dVertex
 10
126.31167
 20
96.971514
 30
0.0
  0
VERTEX
  5
3D3
100
AcDbEntity
  8
T80SSILL
 62
     7
100
AcDbVertex
100
AcDb2dVertex
 10
126.335441
 20
96.440625
 30
0.0
  0
VERTEX
  5
3D4
100
AcDbEntity
  8
T80SSILL
 62
     7
100
AcDbVertex
100
AcDb2dVertex
 10
126.118056
 20
95.95969
 30
0.0
  0
VERTEX
  5
3D5
100
AcDbEntity
  8
T80SSILL
 62
     7
100
AcDbVertex
100
AcDb2dVertex
 10
126.08705
 20
95.936263
 30
0.0
  0
VERTEX
  5
3D6
100
AcDbEntity
  8
T80SSILL
 62
     7
100
AcDbVertex
100
AcDb2dVertex
 10
125.906182
 20
95.911803
 30
0.0
  0
VERTEX
  5
3D7
100
AcDbEntity
  8
T80SSILL
 62
     7
100
AcDbVertex
100
AcDb2dVertex
 10
125.540658
 20
95.892166
 30
0.0
  0
VERTEX
  5
3D8
100
AcDbEntity
  8
T80SSILL
 62
     7
100
AcDbVertex
100
AcDb2dVertex
 10
123.984852
 20
95.898367
 30
0.0
  0
VERTEX
  5
3D9
100
AcDbEntity
  8
T80SSILL
 62
     7
100
AcDbVertex
100
AcDb2dVertex
 10
123.848082
 20
95.946943
 30
0.0
  0
VERTEX
  5
3DA
100
AcDbEntity
  8
T80SSILL
 62
     7
100
AcDbVertex
100
AcDb2dVertex
 10
123.632764
 20
96.071655
 30
0.0
  0
VERTEX
  5
3DB
100
AcDbEntity
  8
T80SSILL
 62
     7
100
AcDbVertex
100
AcDb2dVertex
 10
123.476356
 20
96.299376
 30
0.0
  0
VERTEX
  5
3DC
100
AcDbEntity
  8
T80SSILL
 62
     7
100
AcDbVertex
100
AcDb2dVertex
 10
123.427091
 20
96.481622
 30
0.0
  0
VERTEX
  5
3DD
100
AcDbEntity
  8
T80SSILL
 62
     7
100
AcDbVertex
100
AcDb2dVertex
 10
123.410211
 20
96.891243
 30
0.0
  0
VERTEX
  5
3DE
100
AcDbEntity
  8
T80SSILL
 62
     7
100
AcDbVertex
100
AcDb2dVertex
 10
123.428125
 20
98.006765
 30
0.0
  0
VERTEX
  5
3DF
100
AcDbEntity
  8
T80SSILL
 62
     7
100
AcDbVertex
100
AcDb2dVertex
 10
126.061556
 20
98.061542
 30
0.0
  0
SEQEND
  5
3E0
100
AcDbEntity
  8
T80SSILL
 62
     7
  0
POLYLINE
  5
3B6
100
AcDbEntity
  8
T80SSILL
 62
     7
100
AcDb2dPolyline
 66
     1
 10
0.0
 20
0.0
 30
0.0
 70
     1
  0
VERTEX
  5
3B7
100
AcDbEntity
  8
T80SSILL
 62
     7
100
AcDbVertex
100
AcDb2dVertex
 10
126.119434
 20
99.322792
 30
0.0
  0
VERTEX
  5
3B8
100
AcDbEntity
  8
T80SSILL
 62
     7
100
AcDbVertex
100
AcDb2dVertex
 10
126.193848
 20
99.211515
 30
0.0
  0
VERTEX
  5
3B9
100
AcDbEntity
  8
T80SSILL
 62
     7
100
AcDbVertex
100
AcDb2dVertex
 10
126.301679
 20
99.273872
 30
0.0
  0
VERTEX
  5
3BA
100
AcDbEntity
  8
T80SSILL
 62
     7
100
AcDbVertex
100
AcDb2dVertex
 10
126.299612
 20
99.086114
 30
0.0
  0
VERTEX
  5
3BB
100
AcDbEntity
  8
T80SSILL
 62
     7
100
AcDbVertex
100
AcDb2dVertex
 10
125.841414
 20
99.066477
 30
0.0
  0
VERTEX
  5
3BC
100
AcDbEntity
  8
T80SSILL
 62
     7
100
AcDbVertex
100
AcDb2dVertex
 10
125.839003
 20
98.665123
 30
0.0
  0
VERTEX
  5
3BD
100
AcDbEntity
  8
T80SSILL
 62
     7
100
AcDbVertex
100
AcDb2dVertex
 10
125.764933
 20
98.649965
 30
0.0
  0
VERTEX
  5
3BE
100
AcDbEntity
  8
T80SSILL
 62
     7
100
AcDbVertex
100
AcDb2dVertex
 10
125.213718
 20
98.686827
 30
0.0
  0
VERTEX
  5
3BF
100
AcDbEntity
  8
T80SSILL
 62
     7
100
AcDbVertex
100
AcDb2dVertex
 10
125.060756
 20
98.440158
 30
0.0
  0
VERTEX
  5
3C0
100
AcDbEntity
  8
T80SSILL
 62
     7
100
AcDbVertex
100
AcDb2dVertex
 10
124.993232
 20
98.390205
 30
0.0
  0
VERTEX
  5
3C1
100
AcDbEntity
  8
T80SSILL
 62
     7
100
AcDbVertex
100
AcDb2dVertex
 10
123.414
 20
98.396406
 30
0.0
  0
VERTEX
  5
3C2
100
AcDbEntity
  8
T80SSILL
 62
     7
100
AcDbVertex
100
AcDb2dVertex
 10
123.364391
 20
99.820953
 30
0.0
  0
VERTEX
  5
3C3
100
AcDbEntity
  8
T80SSILL
 62
     7
100
AcDbVertex
100
AcDb2dVertex
 10
123.437427
 20
100.072445
 30
0.0
  0
VERTEX
  5
3C4
100
AcDbEntity
  8
T80SSILL
 62
     7
100
AcDbVertex
100
AcDb2dVertex
 10
123.510118
 20
100.220239
 30
0.0
  0
VERTEX
  5
3C5
100
AcDbEntity
  8
T80SSILL
 62
     7
100
AcDbVertex
100
AcDb2dVertex
 10
123.655846
 20
100.400762
 30
0.0
  0
VERTEX
  5
3C6
100
AcDbEntity
  8
T80SSILL
 62
     7
100
AcDbVertex
100
AcDb2dVertex
 10
123.762988
 20
100.483445
 30
0.0
  0
VERTEX
  5
3C7
100
AcDbEntity
  8
T80SSILL
 62
     7
100
AcDbVertex
100
AcDb2dVertex
 10
123.981752
 20
100.538911
 30
0.0
  0
VERTEX
  5
3C8
100
AcDbEntity
  8
T80SSILL
 62
     7
100
AcDbVertex
100
AcDb2dVertex
 10
125.638843
 20
100.558548
 30
0.0
  0
VERTEX
  5
3C9
100
AcDbEntity
  8
T80SSILL
 62
     7
100
AcDbVertex
100
AcDb2dVertex
 10
126.263094
 20
100.476899
 30
0.0
  0
VERTEX
  5
3CA
100
AcDbEntity
  8
T80SSILL
 62
     7
100
AcDbVertex
100
AcDb2dVertex
 10
126.288932
 20
99.460596
 30
0.0
  0
VERTEX
  5
3CB
100
AcDbEntity
  8
T80SSILL
 62
     7
100
AcDbVertex
100
AcDb2dVertex
 10
126.222786
 20
99.398928
 30
0.0
  0
SEQEND
  5
3CC
100
AcDbEntity
  8
T80SSILL
 62
     7
  0
POLYLINE
  5
39F
100
AcDbEntity
  8
T80SSILL
 62
     7
100
AcDb2dPolyline
 66
     1
 10
0.0
 20
0.0
 30
0.0
 70
     1
  0
VERTEX
  5
3A0
100
AcDbEntity
  8
T80SSILL
 62
     7
100
AcDbVertex
100
AcDb2dVertex
 10
123.016092
 20
98.963124
 30
0.0
  0
VERTEX
  5
3A1
100
AcDbEntity
  8
T80SSILL
 62
     7
100
AcDbVertex
100
AcDb2dVertex
 10
122.959937
 20
98.482533
 30
0.0
  0
VERTEX
  5
3A2
100
AcDbEntity
  8
T80SSILL
 62
     7
100
AcDbVertex
100
AcDb2dVertex
 10
122.963726
 20
97.749072
 30
0.0
  0
VERTEX
  5
3A3
100
AcDbEntity
  8
T80SSILL
 62
     7
100
AcDbVertex
100
AcDb2dVertex
 10
123.029527
 20
97.583019
 30
0.0
  0
VERTEX
  5
3A4
100
AcDbEntity
  8
T80SSILL
 62
     7
100
AcDbVertex
100
AcDb2dVertex
 10
123.069835
 20
96.38826
 30
0.0
  0
VERTEX
  5
3A5
100
AcDbEntity
  8
T80SSILL
 62
     7
100
AcDbVertex
100
AcDb2dVertex
 10
123.128057
 20
96.150892
 30
0.0
  0
VERTEX
  5
3A6
100
AcDbEntity
  8
T80SSILL
 62
     7
100
AcDbVertex
100
AcDb2dVertex
 10
123.234166
 20
95.941431
 30
0.0
  0
VERTEX
  5
3A7
100
AcDbEntity
  8
T80SSILL
 62
     7
100
AcDbVertex
100
AcDb2dVertex
 10
122.380816
 20
95.927306
 30
0.0
  0
VERTEX
  5
3A8
100
AcDbEntity
  8
T80SSILL
 62
     7
100
AcDbVertex
100
AcDb2dVertex
 10
122.197537
 20
96.172252
 30
0.0
  0
VERTEX
  5
3A9
100
AcDbEntity
  8
T80SSILL
 62
     7
100
AcDbVertex
100
AcDb2dVertex
 10
122.13897
 20
98.353342
 30
0.0
  0
VERTEX
  5
3AA
100
AcDbEntity
  8
T80SSILL
 62
     7
100
AcDbVertex
100
AcDb2dVertex
 10
122.153784
 20
98.972081
 30
0.0
  0
VERTEX
  5
3AB
100
AcDbEntity
  8
T80SSILL
 62
     7
100
AcDbVertex
100
AcDb2dVertex
 10
122.1214
 20
99.842312
 30
0.0
  0
VERTEX
  5
3AC
100
AcDbEntity
  8
T80SSILL
 62
     7
100
AcDbVertex
100
AcDb2dVertex
 10
122.142071
 20
100.314979
 30
0.0
  0
VERTEX
  5
3AD
100
AcDbEntity
  8
T80SSILL
 62
     7
100
AcDbVertex
100
AcDb2dVertex
 10
122.243012
 20
100.624004
 30
0.0
  0
VERTEX
  5
3AE
100
AcDbEntity
  8
T80SSILL
 62
     7
100
AcDbVertex
100
AcDb2dVertex
 10
122.391151
 20
100.864817
 30
0.0
  0
VERTEX
  5
3AF
100
AcDbEntity
  8
T80SSILL
 62
     7
100
AcDbVertex
100
AcDb2dVertex
 10
122.71499
 20
101.216905
 30
0.0
  0
VERTEX
  5
3B0
100
AcDbEntity
  8
T80SSILL
 62
     7
100
AcDbVertex
100
AcDb2dVertex
 10
123.303757
 20
100.625382
 30
0.0
  0
VERTEX
  5
3B1
100
AcDbEntity
  8
T80SSILL
 62
     7
100
AcDbVertex
100
AcDb2dVertex
 10
123.169054
 20
100.497225
 30
0.0
  0
VERTEX
  5
3B2
100
AcDbEntity
  8
T80SSILL
 62
     7
100
AcDbVertex
100
AcDb2dVertex
 10
123.097396
 20
100.383537
 30
0.0
  0
VERTEX
  5
3B3
100
AcDbEntity
  8
T80SSILL
 62
     7
100
AcDbVertex
100
AcDb2dVertex
 10
123.019537
 20
100.178209
 30
0.0
  0
VERTEX
  5
3B4
100
AcDbEntity
  8
T80SSILL
 62
     7
100
AcDbVertex
100
AcDb2dVertex
 10
122.997833
 20
99.867117
 30
0.0
  0
SEQEND
  5
3B5
100
AcDbEntity
  8
T80SSILL
 62
     7
  0
POLYLINE
  5
390
100
AcDbEntity
  8
T80SSILL
 62
     7
100
AcDb2dPolyline
 66
     1
 10
0.0
 20
0.0
 30
0.0
 70
     1
  0
VERTEX
  5
391
100
AcDbEntity
  8
T80SSILL
 62
     7
100
AcDbVertex
100
AcDb2dVertex
 10
123.655846
 20
102.121932
 30
0.0
  0
VERTEX
  5
392
100
AcDbEntity
  8
T80SSILL
 62
     7
100
AcDbVertex
100
AcDb2dVertex
 10
125.127246
 20
103.524775
 30
0.0
  0
VERTEX
  5
393
100
AcDbEntity
  8
T80SSILL
 62
     7
100
AcDbVertex
100
AcDb2dVertex
 10
126.131147
 20
101.219317
 30
0.0
  0
VERTEX
  5
394
100
AcDbEntity
  8
T80SSILL
 62
     7
100
AcDbVertex
100
AcDb2dVertex
 10
126.07258
 20
101.018468
 30
0.0
  0
VERTEX
  5
395
100
AcDbEntity
  8
T80SSILL
 62
     7
100
AcDbVertex
100
AcDb2dVertex
 10
125.639187
 20
100.892722
 30
0.0
  0
VERTEX
  5
396
100
AcDbEntity
  8
T80SSILL
 62
     7
100
AcDbVertex
100
AcDb2dVertex
 10
125.337741
 20
100.905124
 30
0.0
  0
VERTEX
  5
397
100
AcDbEntity
  8
T80SSILL
 62
     7
100
AcDbVertex
100
AcDb2dVertex
 10
125.320171
 20
101.189
 30
0.0
  0
VERTEX
  5
398
100
AcDbEntity
  8
T80SSILL
 62
     7
100
AcDbVertex
100
AcDb2dVertex
 10
125.116222
 20
101.190034
 30
0.0
  0
VERTEX
  5
399
100
AcDbEntity
  8
T80SSILL
 62
     7
100
AcDbVertex
100
AcDb2dVertex
 10
125.084527
 20
100.902713
 30
0.0
  0
VERTEX
  5
39A
100
AcDbEntity
  8
T80SSILL
 62
     7
100
AcDbVertex
100
AcDb2dVertex
 10
123.850494
 20
100.873774
 30
0.0
  0
VERTEX
  5
39B
100
AcDbEntity
  8
T80SSILL
 62
     7
100
AcDbVertex
100
AcDb2dVertex
 10
123.509774
 20
100.743205
 30
0.0
  0
VERTEX
  5
39C
100
AcDbEntity
  8
T80SSILL
 62
     7
100
AcDbVertex
100
AcDb2dVertex
 10
123.014369
 20
101.272027
 30
0.0
  0
VERTEX
  5
39D
100
AcDbEntity
  8
T80SSILL
 62
     7
100
AcDbVertex
100
AcDb2dVertex
 10
123.047442
 20
101.541778
 30
0.0
  0
SEQEND
  5
39E
100
AcDbEntity
  8
T80SSILL
 62
     7
  0
POLYLINE
  5
382
100
AcDbEntity
  8
T80SSILL
 62
     7
100
AcDb2dPolyline
 66
     1
 10
0.0
 20
0.0
 30
0.0
 70
     1
  0
VERTEX
  5
383
100
AcDbEntity
  8
T80SSILL
 62
     7
100
AcDbVertex
100
AcDb2dVertex
 10
125.992654
 20
104.372613
 30
0.0
  0
VERTEX
  5
384
100
AcDbEntity
  8
T80SSILL
 62
     7
100
AcDbVertex
100
AcDb2dVertex
 10
126.162842
 20
104.55348
 30
0.0
  0
VERTEX
  5
385
100
AcDbEntity
  8
T80SSILL
 62
     7
100
AcDbVertex
100
AcDb2dVertex
 10
126.224164
 20
104.540389
 30
0.0
  0
VERTEX
  5
386
100
AcDbEntity
  8
T80SSILL
 62
     7
100
AcDbVertex
100
AcDb2dVertex
 10
126.255859
 20
102.224596
 30
0.0
  0
VERTEX
  5
387
100
AcDbEntity
  8
T80SSILL
 62
     7
100
AcDbVertex
100
AcDb2dVertex
 10
126.086361
 20
102.097816
 30
0.0
  0
VERTEX
  5
388
100
AcDbEntity
  8
T80SSILL
 62
     7
100
AcDbVertex
100
AcDb2dVertex
 10
126.183512
 20
101.993774
 30
0.0
  0
VERTEX
  5
389
100
AcDbEntity
  8
T80SSILL
 62
     7
100
AcDbVertex
100
AcDb2dVertex
 10
126.268606
 20
102.050618
 30
0.0
  0
VERTEX
  5
38A
100
AcDbEntity
  8
T80SSILL
 62
     7
100
AcDbVertex
100
AcDb2dVertex
 10
126.265161
 20
101.583464
 30
0.0
  0
VERTEX
  5
38B
100
AcDbEntity
  8
T80SSILL
 62
     7
100
AcDbVertex
100
AcDb2dVertex
 10
126.14975
 20
101.591732
 30
0.0
  0
VERTEX
  5
38C
100
AcDbEntity
  8
T80SSILL
 62
     7
100
AcDbVertex
100
AcDb2dVertex
 10
126.091184
 20
101.700941
 30
0.0
  0
VERTEX
  5
38D
100
AcDbEntity
  8
T80SSILL
 62
     7
100
AcDbVertex
100
AcDb2dVertex
 10
125.274007
 20
103.663268
 30
0.0
  0
VERTEX
  5
38E
100
AcDbEntity
  8
T80SSILL
 62
     7
100
AcDbVertex
100
AcDb2dVertex
 10
125.839347
 20
104.20966
 30
0.0
  0
SEQEND
  5
38F
100
AcDbEntity
  8
T80SSILL
 62
     7
  0
POLYLINE
  5
35C
100
AcDbEntity
  8
T80SSILL
 62
     7
100
AcDb2dPolyline
 66
     1
 10
0.0
 20
0.0
 30
0.0
  0
VERTEX
  5
35D
100
AcDbEntity
  8
T80SSILL
 62
     7
100
AcDbVertex
100
AcDb2dVertex
 10
126.584521
 20
78.062763
 30
0.0
  0
VERTEX
  5
35E
100
AcDbEntity
  8
T80SSILL
 62
     7
100
AcDbVertex
100
AcDb2dVertex
 10
126.549037
 20
80.068498
 30
0.0
  0
VERTEX
  5
35F
100
AcDbEntity
  8
T80SSILL
 62
     7
100
AcDbVertex
100
AcDb2dVertex
 10
126.463943
 20
80.136711
 30
0.0
  0
VERTEX
  5
360
100
AcDbEntity
  8
T80SSILL
 62
     7
100
AcDbVertex
100
AcDb2dVertex
 10
126.375749
 20
80.074699
 30
0.0
  0
VERTEX
  5
361
100
AcDbEntity
  8
T80SSILL
 62
     7
100
AcDbVertex
100
AcDb2dVertex
 10
125.847271
 20
79.349162
 30
0.0
  0
VERTEX
  5
362
100
AcDbEntity
  8
T80SSILL
 62
     7
100
AcDbVertex
100
AcDb2dVertex
 10
125.789393
 20
79.131776
 30
0.0
  0
VERTEX
  5
363
100
AcDbEntity
  8
T80SSILL
 62
     7
100
AcDbVertex
100
AcDb2dVertex
 10
125.771134
 20
78.73559
 30
0.0
  0
VERTEX
  5
364
100
AcDbEntity
  8
T80SSILL
 62
     7
100
AcDbVertex
100
AcDb2dVertex
 10
125.824189
 20
76.195177
 30
0.0
  0
VERTEX
  5
365
100
AcDbEntity
  8
T80SSILL
 62
     7
100
AcDbVertex
100
AcDb2dVertex
 10
125.826945
 20
76.192765
 30
0.0
  0
VERTEX
  5
366
100
AcDbEntity
  8
T80SSILL
 62
     7
100
AcDbVertex
100
AcDb2dVertex
 10
125.939944
 20
76.138677
 30
0.0
  0
VERTEX
  5
367
100
AcDbEntity
  8
T80SSILL
 62
     7
100
AcDbVertex
100
AcDb2dVertex
 10
125.943389
 20
76.142811
 30
0.0
  0
VERTEX
  5
368
100
AcDbEntity
  8
T80SSILL
 62
     7
100
AcDbVertex
100
AcDb2dVertex
 10
125.999544
 20
76.209646
 30
0.0
  0
VERTEX
  5
369
100
AcDbEntity
  8
T80SSILL
 62
     7
100
AcDbVertex
100
AcDb2dVertex
 10
126.017459
 20
76.230661
 30
0.0
  0
VERTEX
  5
36A
100
AcDbEntity
  8
T80SSILL
 62
     7
100
AcDbVertex
100
AcDb2dVertex
 10
126.036751
 20
76.253743
 30
0.0
  0
VERTEX
  5
36B
100
AcDbEntity
  8
T80SSILL
 62
     7
100
AcDbVertex
100
AcDb2dVertex
 10
126.091184
 20
76.311966
 30
0.0
  0
VERTEX
  5
36C
100
AcDbEntity
  8
T80SSILL
 62
     7
100
AcDbVertex
100
AcDb2dVertex
 10
126.251381
 20
76.48112
 30
0.0
  0
VERTEX
  5
36D
100
AcDbEntity
  8
T80SSILL
 62
     7
100
AcDbVertex
100
AcDb2dVertex
 10
126.311325
 20
76.54451
 30
0.0
  0
VERTEX
  5
36E
100
AcDbEntity
  8
T80SSILL
 62
     7
100
AcDbVertex
100
AcDb2dVertex
 10
126.356801
 20
76.592741
 30
0.0
  0
VERTEX
  5
36F
100
AcDbEntity
  8
T80SSILL
 62
     7
100
AcDbVertex
100
AcDb2dVertex
 10
126.389185
 20
76.627192
 30
0.0
  0
VERTEX
  5
370
100
AcDbEntity
  8
T80SSILL
 62
     7
100
AcDbVertex
100
AcDb2dVertex
 10
126.435349
 20
76.675768
 30
0.0
  0
VERTEX
  5
371
100
AcDbEntity
  8
T80SSILL
 62
     7
100
AcDbVertex
100
AcDb2dVertex
 10
126.451196
 20
76.735368
 30
0.0
  0
VERTEX
  5
372
100
AcDbEntity
  8
T80SSILL
 62
     7
100
AcDbVertex
100
AcDb2dVertex
 10
126.459465
 20
76.784633
 30
0.0
  0
VERTEX
  5
373
100
AcDbEntity
  8
T80SSILL
 62
     7
100
AcDbVertex
100
AcDb2dVertex
 10
126.482202
 20
76.921058
 30
0.0
  0
VERTEX
  5
374
100
AcDbEntity
  8
T80SSILL
 62
     7
100
AcDbVertex
100
AcDb2dVertex
 10
126.48358
 20
76.929671
 30
0.0
  0
VERTEX
  5
375
100
AcDbEntity
  8
T80SSILL
 62
     7
100
AcDbVertex
100
AcDb2dVertex
 10
126.555583
 20
77.047149
 30
0.0
  0
VERTEX
  5
376
100
AcDbEntity
  8
T80SSILL
 62
     7
100
AcDbVertex
100
AcDb2dVertex
 10
126.560061
 20
77.078155
 30
0.0
  0
VERTEX
  5
377
100
AcDbEntity
  8
T80SSILL
 62
     7
100
AcDbVertex
100
AcDb2dVertex
 10
126.584866
 20
77.254888
 30
0.0
  0
VERTEX
  5
378
100
AcDbEntity
  8
T80SSILL
 62
     7
100
AcDbVertex
100
AcDb2dVertex
 10
126.535601
 20
77.331025
 30
0.0
  0
VERTEX
  5
379
100
AcDbEntity
  8
T80SSILL
 62
     7
100
AcDbVertex
100
AcDb2dVertex
 10
126.481858
 20
77.413363
 30
0.0
  0
VERTEX
  5
37A
100
AcDbEntity
  8
T80SSILL
 62
     7
100
AcDbVertex
100
AcDb2dVertex
 10
126.478068
 20
77.435411
 30
0.0
  0
VERTEX
  5
37B
100
AcDbEntity
  8
T80SSILL
 62
     7
100
AcDbVertex
100
AcDb2dVertex
 10
126.453263
 20
77.574249
 30
0.0
  0
VERTEX
  5
37C
100
AcDbEntity
  8
T80SSILL
 62
     7
100
AcDbVertex
100
AcDb2dVertex
 10
126.473589
 20
77.86467
 30
0.0
  0
VERTEX
  5
37D
100
AcDbEntity
  8
T80SSILL
 62
     7
100
AcDbVertex
100
AcDb2dVertex
 10
126.574531
 20
77.897743
 30
0.0
  0
VERTEX
  5
37E
100
AcDbEntity
  8
T80SSILL
 62
     7
100
AcDbVertex
100
AcDb2dVertex
 10
126.575909
 20
77.921514
 30
0.0
  0
VERTEX
  5
37F
100
AcDbEntity
  8
T80SSILL
 62
     7
100
AcDbVertex
100
AcDb2dVertex
 10
126.579354
 20
77.975258
 30
0.0
  0
VERTEX
  5
380
100
AcDbEntity
  8
T80SSILL
 62
     7
100
AcDbVertex
100
AcDb2dVertex
 10
126.584521
 20
78.062763
 30
0.0
  0
SEQEND
  5
381
100
AcDbEntity
  8
T80SSILL
 62
     7
  0
POLYLINE
  5
2E5
100
AcDbEntity
  8
T80SSILL
 62
     7
100
AcDb2dPolyline
 66
     1
 10
0.0
 20
0.0
 30
0.0
  0
VERTEX
  5
2E6
100
AcDbEntity
  8
T80SSILL
 62
     7
100
AcDbVertex
100
AcDb2dVertex
 10
126.76849
 20
78.267402
 30
0.0
  0
VERTEX
  5
2E7
100
AcDbEntity
  8
T80SSILL
 62
     7
100
AcDbVertex
100
AcDb2dVertex
 10
126.800873
 20
78.00902
 30
0.0
  0
VERTEX
  5
2E8
100
AcDbEntity
  8
T80SSILL
 62
     7
100
AcDbVertex
100
AcDb2dVertex
 10
126.808108
 20
77.949764
 30
0.0
  0
VERTEX
  5
2E9
100
AcDbEntity
  8
T80SSILL
 62
     7
100
AcDbVertex
100
AcDb2dVertex
 10
126.809142
 20
77.942874
 30
0.0
  0
VERTEX
  5
2EA
100
AcDbEntity
  8
T80SSILL
 62
     7
100
AcDbVertex
100
AcDb2dVertex
 10
126.812931
 20
77.913935
 30
0.0
  0
VERTEX
  5
2EB
100
AcDbEntity
  8
T80SSILL
 62
     7
100
AcDbVertex
100
AcDb2dVertex
 10
126.840148
 20
77.723766
 30
0.0
  0
VERTEX
  5
2EC
100
AcDbEntity
  8
T80SSILL
 62
     7
100
AcDbVertex
100
AcDb2dVertex
 10
126.858062
 20
77.598709
 30
0.0
  0
VERTEX
  5
2ED
100
AcDbEntity
  8
T80SSILL
 62
     7
100
AcDbVertex
100
AcDb2dVertex
 10
126.922485
 20
77.455737
 30
0.0
  0
VERTEX
  5
2EE
100
AcDbEntity
  8
T80SSILL
 62
     7
100
AcDbVertex
100
AcDb2dVertex
 10
126.942122
 20
77.328613
 30
0.0
  0
VERTEX
  5
2EF
100
AcDbEntity
  8
T80SSILL
 62
     7
100
AcDbVertex
100
AcDb2dVertex
 10
126.951769
 20
77.267291
 30
0.0
  0
VERTEX
  5
2F0
100
AcDbEntity
  8
T80SSILL
 62
     7
100
AcDbVertex
100
AcDb2dVertex
 10
126.962104
 20
77.199767
 30
0.0
  0
VERTEX
  5
2F1
100
AcDbEntity
  8
T80SSILL
 62
     7
100
AcDbVertex
100
AcDb2dVertex
 10
127.004134
 20
76.735712
 30
0.0
  0
VERTEX
  5
2F2
100
AcDbEntity
  8
T80SSILL
 62
     7
100
AcDbVertex
100
AcDb2dVertex
 10
127.005168
 20
76.726066
 30
0.0
  0
VERTEX
  5
2F3
100
AcDbEntity
  8
T80SSILL
 62
     7
100
AcDbVertex
100
AcDb2dVertex
 10
126.927653
 20
76.648207
 30
0.0
  0
VERTEX
  5
2F4
100
AcDbEntity
  8
T80SSILL
 62
     7
100
AcDbVertex
100
AcDb2dVertex
 10
126.635853
 20
76.545888
 30
0.0
  0
VERTEX
  5
2F5
100
AcDbEntity
  8
T80SSILL
 62
     7
100
AcDbVertex
100
AcDb2dVertex
 10
126.618283
 20
76.537275
 30
0.0
  0
VERTEX
  5
2F6
100
AcDbEntity
  8
T80SSILL
 62
     7
100
AcDbVertex
100
AcDb2dVertex
 10
126.56833
 20
76.513504
 30
0.0
  0
VERTEX
  5
2F7
100
AcDbEntity
  8
T80SSILL
 62
     7
100
AcDbVertex
100
AcDb2dVertex
 10
126.549037
 20
76.494211
 30
0.0
  0
VERTEX
  5
2F8
100
AcDbEntity
  8
T80SSILL
 62
     7
100
AcDbVertex
100
AcDb2dVertex
 10
126.488403
 20
76.432888
 30
0.0
  0
VERTEX
  5
2F9
100
AcDbEntity
  8
T80SSILL
 62
     7
100
AcDbVertex
100
AcDb2dVertex
 10
126.461532
 20
76.406017
 30
0.0
  0
VERTEX
  5
2FA
100
AcDbEntity
  8
T80SSILL
 62
     7
100
AcDbVertex
100
AcDb2dVertex
 10
126.34991
 20
76.294051
 30
0.0
  0
VERTEX
  5
2FB
100
AcDbEntity
  8
T80SSILL
 62
     7
100
AcDbVertex
100
AcDb2dVertex
 10
126.33613
 20
76.280271
 30
0.0
  0
VERTEX
  5
2FC
100
AcDbEntity
  8
T80SSILL
 62
     7
100
AcDbVertex
100
AcDb2dVertex
 10
126.254481
 20
76.196555
 30
0.0
  0
VERTEX
  5
2FD
100
AcDbEntity
  8
T80SSILL
 62
     7
100
AcDbVertex
100
AcDb2dVertex
 10
126.209006
 20
76.149702
 30
0.0
  0
VERTEX
  5
2FE
100
AcDbEntity
  8
T80SSILL
 62
     7
100
AcDbVertex
100
AcDb2dVertex
 10
126.16422
 20
76.103537
 30
0.0
  0
VERTEX
  5
2FF
100
AcDbEntity
  8
T80SSILL
 62
     7
100
AcDbVertex
100
AcDb2dVertex
 10
126.151817
 20
76.091135
 30
0.0
  0
VERTEX
  5
300
100
AcDbEntity
  8
T80SSILL
 62
     7
100
AcDbVertex
100
AcDb2dVertex
 10
126.025038
 20
75.978825
 30
0.0
  0
VERTEX
  5
301
100
AcDbEntity
  8
T80SSILL
 62
     7
100
AcDbVertex
100
AcDb2dVertex
 10
125.999544
 20
75.956087
 30
0.0
  0
VERTEX
  5
302
100
AcDbEntity
  8
T80SSILL
 62
     7
100
AcDbVertex
100
AcDb2dVertex
 10
125.992654
 20
75.950231
 30
0.0
  0
VERTEX
  5
303
100
AcDbEntity
  8
T80SSILL
 62
     7
100
AcDbVertex
100
AcDb2dVertex
 10
125.930987
 20
75.856868
 30
0.0
  0
VERTEX
  5
304
100
AcDbEntity
  8
T80SSILL
 62
     7
100
AcDbVertex
100
AcDb2dVertex
 10
125.852094
 20
75.761095
 30
0.0
  0
VERTEX
  5
305
100
AcDbEntity
  8
T80SSILL
 62
     7
100
AcDbVertex
100
AcDb2dVertex
 10
125.83728
 20
75.715275
 30
0.0
  0
VERTEX
  5
306
100
AcDbEntity
  8
T80SSILL
 62
     7
100
AcDbVertex
100
AcDb2dVertex
 10
125.83418
 20
75.70804
 30
0.0
  0
VERTEX
  5
307
100
AcDbEntity
  8
T80SSILL
 62
     7
100
AcDbVertex
100
AcDb2dVertex
 10
125.892057
 20
73.045326
 30
0.0
  0
VERTEX
  5
308
100
AcDbEntity
  8
T80SSILL
 62
     7
100
AcDbVertex
100
AcDb2dVertex
 10
125.950279
 20
72.982281
 30
0.0
  0
VERTEX
  5
309
100
AcDbEntity
  8
T80SSILL
 62
     7
100
AcDbVertex
100
AcDb2dVertex
 10
125.964404
 20
72.837587
 30
0.0
  0
VERTEX
  5
30A
100
AcDbEntity
  8
T80SSILL
 62
     7
100
AcDbVertex
100
AcDb2dVertex
 10
126.070513
 20
72.632259
 30
0.0
  0
VERTEX
  5
30B
100
AcDbEntity
  8
T80SSILL
 62
     7
100
AcDbVertex
100
AcDb2dVertex
 10
126.126324
 20
72.457248
 30
0.0
  0
VERTEX
  5
30C
100
AcDbEntity
  8
T80SSILL
 62
     7
100
AcDbVertex
100
AcDb2dVertex
 10
126.115299
 20
72.398337
 30
0.0
  0
VERTEX
  5
30D
100
AcDbEntity
  8
T80SSILL
 62
     7
100
AcDbVertex
100
AcDb2dVertex
 10
126.414334
 20
71.526728
 30
0.0
  0
VERTEX
  5
30E
100
AcDbEntity
  8
T80SSILL
 62
     7
100
AcDbVertex
100
AcDb2dVertex
 10
126.46291
 20
71.561179
 30
0.0
  0
VERTEX
  5
30F
100
AcDbEntity
  8
T80SSILL
 62
     7
100
AcDbVertex
100
AcDb2dVertex
 10
126.542836
 20
71.453347
 30
0.0
  0
VERTEX
  5
310
100
AcDbEntity
  8
T80SSILL
 62
     7
100
AcDbVertex
100
AcDb2dVertex
 10
126.468077
 20
71.389613
 30
0.0
  0
VERTEX
  5
311
100
AcDbEntity
  8
T80SSILL
 62
     7
100
AcDbVertex
100
AcDb2dVertex
 10
127.003445
 20
69.857579
 30
0.0
  0
VERTEX
  5
312
100
AcDbEntity
  8
T80SSILL
 62
     7
100
AcDbVertex
100
AcDb2dVertex
 10
127.810975
 20
67.413628
 30
0.0
  0
VERTEX
  5
313
100
AcDbEntity
  8
T80SSILL
 62
     7
100
AcDbVertex
100
AcDb2dVertex
 10
127.9412
 20
67.400537
 30
0.0
  0
VERTEX
  5
314
100
AcDbEntity
  8
T80SSILL
 62
     7
100
AcDbVertex
100
AcDb2dVertex
 10
127.89917
 20
67.178673
 30
0.0
  0
VERTEX
  5
315
100
AcDbEntity
  8
T80SSILL
 62
     7
100
AcDbVertex
100
AcDb2dVertex
 10
128.33463
 20
65.916045
 30
0.0
  0
VERTEX
  5
316
100
AcDbEntity
  8
T80SSILL
 62
     7
100
AcDbVertex
100
AcDb2dVertex
 10
128.425581
 20
65.885384
 30
0.0
  0
VERTEX
  5
317
100
AcDbEntity
  8
T80SSILL
 62
     7
100
AcDbVertex
100
AcDb2dVertex
 10
128.511363
 20
65.761361
 30
0.0
  0
VERTEX
  5
318
100
AcDbEntity
  8
T80SSILL
 62
     7
100
AcDbVertex
100
AcDb2dVertex
 10
128.440394
 20
65.600819
 30
0.0
  0
VERTEX
  5
319
100
AcDbEntity
  8
T80SSILL
 62
     7
100
AcDbVertex
100
AcDb2dVertex
 10
128.949924
 20
64.128385
 30
0.0
  0
VERTEX
  5
31A
100
AcDbEntity
  8
T80SSILL
 62
     7
100
AcDbVertex
100
AcDb2dVertex
 10
129.084972
 20
64.155946
 30
0.0
  0
VERTEX
  5
31B
100
AcDbEntity
  8
T80SSILL
 62
     7
100
AcDbVertex
100
AcDb2dVertex
 10
129.199349
 20
64.078432
 30
0.0
  0
VERTEX
  5
31C
100
AcDbEntity
  8
T80SSILL
 62
     7
100
AcDbVertex
100
AcDb2dVertex
 10
129.375393
 20
63.6788
 30
0.0
  0
VERTEX
  5
31D
100
AcDbEntity
  8
T80SSILL
 62
     7
100
AcDbVertex
100
AcDb2dVertex
 10
129.522154
 20
63.699471
 30
0.0
  0
VERTEX
  5
31E
100
AcDbEntity
  8
T80SSILL
 62
     7
100
AcDbVertex
100
AcDb2dVertex
 10
129.589334
 20
63.629536
 30
0.0
  0
VERTEX
  5
31F
100
AcDbEntity
  8
T80SSILL
 62
     7
100
AcDbVertex
100
AcDb2dVertex
 10
129.583477
 20
63.474506
 30
0.0
  0
VERTEX
  5
320
100
AcDbEntity
  8
T80SSILL
 62
     7
100
AcDbVertex
100
AcDb2dVertex
 10
129.378494
 20
63.400437
 30
0.0
  0
VERTEX
  5
321
100
AcDbEntity
  8
T80SSILL
 62
     7
100
AcDbVertex
100
AcDb2dVertex
 10
129.569352
 20
62.896764
 30
0.0
  0
VERTEX
  5
322
100
AcDbEntity
  8
T80SSILL
 62
     7
100
AcDbVertex
100
AcDb2dVertex
 10
129.536279
 20
62.802368
 30
0.0
  0
VERTEX
  5
323
100
AcDbEntity
  8
T80SSILL
 62
     7
100
AcDbVertex
100
AcDb2dVertex
 10
129.674428
 20
62.395847
 30
0.0
  0
VERTEX
  5
324
100
AcDbEntity
  8
T80SSILL
 62
     7
100
AcDbVertex
100
AcDb2dVertex
 10
129.584855
 20
62.264589
 30
0.0
  0
VERTEX
  5
325
100
AcDbEntity
  8
T80SSILL
 62
     7
100
AcDbVertex
100
AcDb2dVertex
 10
129.911106
 20
61.302718
 30
0.0
  0
VERTEX
  5
326
100
AcDbEntity
  8
T80SSILL
 62
     7
100
AcDbVertex
100
AcDb2dVertex
 10
130.344154
 20
61.025388
 30
0.0
  0
VERTEX
  5
327
100
AcDbEntity
  8
T80SSILL
 62
     7
100
AcDbVertex
100
AcDb2dVertex
 10
130.452675
 20
60.929959
 30
0.0
  0
VERTEX
  5
328
100
AcDbEntity
  8
T80SSILL
 62
     7
100
AcDbVertex
100
AcDb2dVertex
 10
130.582899
 20
60.920657
 30
0.0
  0
VERTEX
  5
329
100
AcDbEntity
  8
T80SSILL
 62
     7
100
AcDbVertex
100
AcDb2dVertex
 10
130.941534
 20
60.789743
 30
0.0
  0
VERTEX
  5
32A
100
AcDbEntity
  8
T80SSILL
 62
     7
100
AcDbVertex
100
AcDb2dVertex
 10
132.182457
 20
60.627824
 30
0.0
  0
VERTEX
  5
32B
100
AcDbEntity
  8
T80SSILL
 62
     7
100
AcDbVertex
100
AcDb2dVertex
 10
132.239301
 20
60.630924
 30
0.0
  0
VERTEX
  5
32C
100
AcDbEntity
  8
T80SSILL
 62
     7
100
AcDbVertex
100
AcDb2dVertex
 10
132.251704
 20
60.638848
 30
0.0
  0
VERTEX
  5
32D
100
AcDbEntity
  8
T80SSILL
 62
     7
100
AcDbVertex
100
AcDb2dVertex
 10
132.259283
 20
60.791466
 30
0.0
  0
VERTEX
  5
32E
100
AcDbEntity
  8
T80SSILL
 62
     7
100
AcDbVertex
100
AcDb2dVertex
 10
132.699566
 20
60.744957
 30
0.0
  0
VERTEX
  5
32F
100
AcDbEntity
  8
T80SSILL
 62
     7
100
AcDbVertex
100
AcDb2dVertex
 10
132.915918
 20
60.587172
 30
0.0
  0
VERTEX
  5
330
100
AcDbEntity
  8
T80SSILL
 62
     7
100
AcDbVertex
100
AcDb2dVertex
 10
133.139849
 20
60.502767
 30
0.0
  0
VERTEX
  5
331
100
AcDbEntity
  8
T80SSILL
 62
     7
100
AcDbVertex
100
AcDb2dVertex
 10
143.188159
 20
59.19053
 30
0.0
  0
VERTEX
  5
332
100
AcDbEntity
  8
T80SSILL
 62
     7
100
AcDbVertex
100
AcDb2dVertex
 10
143.484093
 20
59.252197
 30
0.0
  0
VERTEX
  5
333
100
AcDbEntity
  8
T80SSILL
 62
     7
100
AcDbVertex
100
AcDb2dVertex
 10
143.701823
 20
59.330745
 30
0.0
  0
VERTEX
  5
334
100
AcDbEntity
  8
T80SSILL
 62
     7
100
AcDbVertex
100
AcDb2dVertex
 10
143.887514
 20
59.273901
 30
0.0
  0
VERTEX
  5
335
100
AcDbEntity
  8
T80SSILL
 62
     7
100
AcDbVertex
100
AcDb2dVertex
 10
144.025662
 20
59.101647
 30
0.0
  0
VERTEX
  5
336
100
AcDbEntity
  8
T80SSILL
 62
     7
100
AcDbVertex
100
AcDb2dVertex
 10
144.53278
 20
59.081321
 30
0.0
  0
VERTEX
  5
337
100
AcDbEntity
  8
T80SSILL
 62
     7
100
AcDbVertex
100
AcDb2dVertex
 10
144.906917
 20
59.205344
 30
0.0
  0
VERTEX
  5
338
100
AcDbEntity
  8
T80SSILL
 62
     7
100
AcDbVertex
100
AcDb2dVertex
 10
145.169089
 20
59.364163
 30
0.0
  0
VERTEX
  5
339
100
AcDbEntity
  8
T80SSILL
 62
     7
100
AcDbVertex
100
AcDb2dVertex
 10
146.324574
 20
59.964643
 30
0.0
  0
VERTEX
  5
33A
100
AcDbEntity
  8
T80SSILL
 62
     7
100
AcDbVertex
100
AcDb2dVertex
 10
146.519567
 20
60.099002
 30
0.0
  0
VERTEX
  5
33B
100
AcDbEntity
  8
T80SSILL
 62
     7
100
AcDbVertex
100
AcDb2dVertex
 10
146.548505
 20
60.056627
 30
0.0
  0
VERTEX
  5
33C
100
AcDbEntity
  8
T80SSILL
 62
     7
100
AcDbVertex
100
AcDb2dVertex
 10
151.097065
 20
62.420652
 30
0.0
  0
VERTEX
  5
33D
100
AcDbEntity
  8
T80SSILL
 62
     7
100
AcDbVertex
100
AcDb2dVertex
 10
151.211442
 20
62.545364
 30
0.0
  0
VERTEX
  5
33E
100
AcDbEntity
  8
T80SSILL
 62
     7
100
AcDbVertex
100
AcDb2dVertex
 10
151.335121
 20
62.544331
 30
0.0
  0
VERTEX
  5
33F
100
AcDbEntity
  8
T80SSILL
 62
     7
100
AcDbVertex
100
AcDb2dVertex
 10
154.333732
 20
64.102892
 30
0.0
  0
VERTEX
  5
340
100
AcDbEntity
  8
T80SSILL
 62
     7
100
AcDbVertex
100
AcDb2dVertex
 10
154.460512
 20
64.311664
 30
0.0
  0
VERTEX
  5
341
100
AcDbEntity
  8
T80SSILL
 62
     7
100
AcDbVertex
100
AcDb2dVertex
 10
154.838783
 20
64.533529
 30
0.0
  0
VERTEX
  5
342
100
AcDbEntity
  8
T80SSILL
 62
     7
100
AcDbVertex
100
AcDb2dVertex
 10
155.082007
 20
64.491498
 30
0.0
  0
VERTEX
  5
343
100
AcDbEntity
  8
T80SSILL
 62
     7
100
AcDbVertex
100
AcDb2dVertex
 10
157.856687
 20
65.933271
 30
0.0
  0
VERTEX
  5
344
100
AcDbEntity
  8
T80SSILL
 62
     7
100
AcDbVertex
100
AcDb2dVertex
 10
157.955561
 20
65.785821
 30
0.0
  0
VERTEX
  5
345
100
AcDbEntity
  8
T80SSILL
 62
     7
100
AcDbVertex
100
AcDb2dVertex
 10
157.893205
 20
65.649051
 30
0.0
  0
VERTEX
  5
346
100
AcDbEntity
  8
T80SSILL
 62
     7
100
AcDbVertex
100
AcDb2dVertex
 10
158.01964
 20
65.439933
 30
0.0
  0
VERTEX
  5
347
100
AcDbEntity
  8
T80SSILL
 62
     7
100
AcDbVertex
100
AcDb2dVertex
 10
158.05788
 20
65.380678
 30
0.0
  0
VERTEX
  5
348
100
AcDbEntity
  8
T80SSILL
 62
     7
100
AcDbVertex
100
AcDb2dVertex
 10
157.959695
 20
65.235295
 30
0.0
  0
VERTEX
  5
349
100
AcDbEntity
  8
T80SSILL
 62
     7
100
AcDbVertex
100
AcDb2dVertex
 10
157.838083
 20
65.149856
 30
0.0
  0
VERTEX
  5
34A
100
AcDbEntity
  8
T80SSILL
 62
     7
100
AcDbVertex
100
AcDb2dVertex
 10
157.709237
 20
65.2632
 30
0.0
  0
VERTEX
  5
34B
100
AcDbEntity
  8
T80SSILL
 62
     7
100
AcDbVertex
100
AcDb2dVertex
 10
157.435352
 20
65.504357
 30
0.0
  0
VERTEX
  5
34C
100
AcDbEntity
  8
T80SSILL
 62
     7
100
AcDbVertex
100
AcDb2dVertex
 10
145.244192
 20
59.168481
 30
0.0
  0
VERTEX
  5
34D
100
AcDbEntity
  8
T80SSILL
 62
     7
100
AcDbVertex
100
AcDb2dVertex
 10
145.00338
 20
59.020342
 30
0.0
  0
VERTEX
  5
34E
100
AcDbEntity
  8
T80SSILL
 62
     7
100
AcDbVertex
100
AcDb2dVertex
 10
144.864198
 20
58.972456
 30
0.0
  0
VERTEX
  5
34F
100
AcDbEntity
  8
T80SSILL
 62
     7
100
AcDbVertex
100
AcDb2dVertex
 10
144.786339
 20
58.869792
 30
0.0
  0
VERTEX
  5
350
100
AcDbEntity
  8
T80SSILL
 62
     7
100
AcDbVertex
100
AcDb2dVertex
 10
144.529679
 20
58.822938
 30
0.0
  0
VERTEX
  5
351
100
AcDbEntity
  8
T80SSILL
 62
     7
100
AcDbVertex
100
AcDb2dVertex
 10
143.930577
 20
58.894941
 30
0.0
  0
VERTEX
  5
352
100
AcDbEntity
  8
T80SSILL
 62
     7
100
AcDbVertex
100
AcDb2dVertex
 10
143.662549
 20
58.903898
 30
0.0
  0
VERTEX
  5
353
100
AcDbEntity
  8
T80SSILL
 62
     7
100
AcDbVertex
100
AcDb2dVertex
 10
143.544382
 20
58.80778
 30
0.0
  0
VERTEX
  5
354
100
AcDbEntity
  8
T80SSILL
 62
     7
100
AcDbVertex
100
AcDb2dVertex
 10
144.254761
 20
57.963387
 30
0.0
  0
VERTEX
  5
355
100
AcDbEntity
  8
T80SSILL
 62
     7
100
AcDbVertex
100
AcDb2dVertex
 10
144.113856
 20
57.839708
 30
0.0
  0
VERTEX
  5
356
100
AcDbEntity
  8
T80SSILL
 62
     7
100
AcDbVertex
100
AcDb2dVertex
 10
143.467212
 20
58.604175
 30
0.0
  0
VERTEX
  5
357
100
AcDbEntity
  8
T80SSILL
 62
     7
100
AcDbVertex
100
AcDb2dVertex
 10
143.380396
 20
58.635525
 30
0.0
  0
VERTEX
  5
358
100
AcDbEntity
  8
T80SSILL
 62
     7
100
AcDbVertex
100
AcDb2dVertex
 10
143.141306
 20
58.851533
 30
0.0
  0
VERTEX
  5
359
100
AcDbEntity
  8
T80SSILL
 62
     7
100
AcDbVertex
100
AcDb2dVertex
 10
142.8154
 20
59.050315
 30
0.0
  0
VERTEX
  5
35A
100
AcDbEntity
  8
T80SSILL
 62
     7
100
AcDbVertex
100
AcDb2dVertex
 10
132.26445
 20
60.428008
 30
0.0
  0
SEQEND
  5
35B
100
AcDbEntity
  8
T80SSILL
 62
     7
  0
POLYLINE
  5
2D5
100
AcDbEntity
  8
T80SSILL
 62
     7
100
AcDb2dPolyline
 66
     1
 10
0.0
 20
0.0
 30
0.0
  0
VERTEX
  5
2D6
100
AcDbEntity
  8
T80SSILL
 62
     7
100
AcDbVertex
100
AcDb2dVertex
 10
131.67844
 20
60.504489
 30
0.0
  0
VERTEX
  5
2D7
100
AcDbEntity
  8
T80SSILL
 62
     7
100
AcDbVertex
100
AcDb2dVertex
 10
130.691764
 20
60.633336
 30
0.0
  0
VERTEX
  5
2D8
100
AcDbEntity
  8
T80SSILL
 62
     7
100
AcDbVertex
100
AcDb2dVertex
 10
130.307292
 20
60.703271
 30
0.0
  0
VERTEX
  5
2D9
100
AcDbEntity
  8
T80SSILL
 62
     7
100
AcDbVertex
100
AcDb2dVertex
 10
130.145717
 20
60.783887
 30
0.0
  0
VERTEX
  5
2DA
100
AcDbEntity
  8
T80SSILL
 62
     7
100
AcDbVertex
100
AcDb2dVertex
 10
130.099897
 20
60.756326
 30
0.0
  0
VERTEX
  5
2DB
100
AcDbEntity
  8
T80SSILL
 62
     7
100
AcDbVertex
100
AcDb2dVertex
 10
130.485748
 20
59.634258
 30
0.0
  0
VERTEX
  5
2DC
100
AcDbEntity
  8
T80SSILL
 62
     7
100
AcDbVertex
100
AcDb2dVertex
 10
130.595646
 20
59.51747
 30
0.0
  0
VERTEX
  5
2DD
100
AcDbEntity
  8
T80SSILL
 62
     7
100
AcDbVertex
100
AcDb2dVertex
 10
130.637676
 20
59.498522
 30
0.0
  0
VERTEX
  5
2DE
100
AcDbEntity
  8
T80SSILL
 62
     7
100
AcDbVertex
100
AcDb2dVertex
 10
130.924653
 20
59.622545
 30
0.0
  0
VERTEX
  5
2DF
100
AcDbEntity
  8
T80SSILL
 62
     7
100
AcDbVertex
100
AcDb2dVertex
 10
131.348055
 20
60.075231
 30
0.0
  0
VERTEX
  5
2E0
100
AcDbEntity
  8
T80SSILL
 62
     7
100
AcDbVertex
100
AcDb2dVertex
 10
131.441417
 20
60.105547
 30
0.0
  0
VERTEX
  5
2E1
100
AcDbEntity
  8
T80SSILL
 62
     7
100
AcDbVertex
100
AcDb2dVertex
 10
131.763878
 20
60.382189
 30
0.0
  0
VERTEX
  5
2E2
100
AcDbEntity
  8
T80SSILL
 62
     7
100
AcDbVertex
100
AcDb2dVertex
 10
131.74872
 20
60.435588
 30
0.0
  0
VERTEX
  5
2E3
100
AcDbEntity
  8
T80SSILL
 62
     7
100
AcDbVertex
100
AcDb2dVertex
 10
131.67844
 20
60.504489
 30
0.0
  0
SEQEND
  5
2E4
100
AcDbEntity
  8
T80SSILL
 62
     7
  0
POLYLINE
  5
36
100
AcDbEntity
  8
T80SSILL
 62
     7
100
AcDb2dPolyline
 66
     1
 10
0.0
 20
0.0
 30
0.0
  0
VERTEX
  5
37
100
AcDbEntity
  8
T80SSILL
 62
     7
100
AcDbVertex
100
AcDb2dVertex
 10
132.26445
 20
60.428008
 30
0.0
  0
VERTEX
  5
38
100
AcDbEntity
  8
T80SSILL
 62
     7
100
AcDbVertex
100
AcDb2dVertex
 10
132.035007
 20
60.324655
 30
0.0
  0
VERTEX
  5
39
100
AcDbEntity
  8
T80SSILL
 62
     7
100
AcDbVertex
100
AcDb2dVertex
 10
131.721848
 20
60.069029
 30
0.0
  0
VERTEX
  5
3A
100
AcDbEntity
  8
T80SSILL
 62
     7
100
AcDbVertex
100
AcDb2dVertex
 10
131.420747
 20
59.784465
 30
0.0
  0
VERTEX
  5
3B
100
AcDbEntity
  8
T80SSILL
 62
     7
100
AcDbVertex
100
AcDb2dVertex
 10
130.978396
 20
59.321788
 30
0.0
  0
VERTEX
  5
3C
100
AcDbEntity
  8
T80SSILL
 62
     7
100
AcDbVertex
100
AcDb2dVertex
 10
130.882623
 20
59.188118
 30
0.0
  0
VERTEX
  5
3D
100
AcDbEntity
  8
T80SSILL
 62
     7
100
AcDbVertex
100
AcDb2dVertex
 10
130.792361
 20
59.02172
 30
0.0
  0
VERTEX
  5
3E
100
AcDbEntity
  8
T80SSILL
 62
     7
100
AcDbVertex
100
AcDb2dVertex
 10
130.783748
 20
59.007595
 30
0.0
  0
VERTEX
  5
3F
100
AcDbEntity
  8
T80SSILL
 62
     7
100
AcDbVertex
100
AcDb2dVertex
 10
130.72277
 20
58.974523
 30
0.0
  0
VERTEX
  5
40
100
AcDbEntity
  8
T80SSILL
 62
     7
100
AcDbVertex
100
AcDb2dVertex
 10
131.254693
 20
57.423885
 30
0.0
  0
VERTEX
  5
41
100
AcDbEntity
  8
T80SSILL
 62
     7
100
AcDbVertex
100
AcDb2dVertex
 10
131.535468
 20
57.099702
 30
0.0
  0
VERTEX
  5
42
100
AcDbEntity
  8
T80SSILL
 62
     7
100
AcDbVertex
100
AcDb2dVertex
 10
131.410411
 20
56.925035
 30
0.0
  0
VERTEX
  5
43
100
AcDbEntity
  8
T80SSILL
 62
     7
100
AcDbVertex
100
AcDb2dVertex
 10
132.011925
 20
55.172171
 30
0.0
  0
VERTEX
  5
44
100
AcDbEntity
  8
T80SSILL
 62
     7
100
AcDbVertex
100
AcDb2dVertex
 10
132.160064
 20
55.021965
 30
0.0
  0
VERTEX
  5
45
100
AcDbEntity
  8
T80SSILL
 62
     7
100
AcDbVertex
100
AcDb2dVertex
 10
132.107699
 20
54.882438
 30
0.0
  0
VERTEX
  5
46
100
AcDbEntity
  8
T80SSILL
 62
     7
100
AcDbVertex
100
AcDb2dVertex
 10
132.733672
 20
53.063428
 30
0.0
  0
VERTEX
  5
47
100
AcDbEntity
  8
T80SSILL
 62
     7
100
AcDbVertex
100
AcDb2dVertex
 10
132.861485
 20
53.01244
 30
0.0
  0
VERTEX
  5
48
100
AcDbEntity
  8
T80SSILL
 62
     7
100
AcDbVertex
100
AcDb2dVertex
 10
132.81601
 20
52.816759
 30
0.0
  0
VERTEX
  5
49
100
AcDbEntity
  8
T80SSILL
 62
     7
100
AcDbVertex
100
AcDb2dVertex
 10
133.419591
 20
51.163113
 30
0.0
  0
VERTEX
  5
4A
100
AcDbEntity
  8
T80SSILL
 62
     7
100
AcDbVertex
100
AcDb2dVertex
 10
133.5288
 20
51.086976
 30
0.0
  0
VERTEX
  5
4B
100
AcDbEntity
  8
T80SSILL
 62
     7
100
AcDbVertex
100
AcDb2dVertex
 10
133.860563
 20
50.122005
 30
0.0
  0
VERTEX
  5
4C
100
AcDbEntity
  8
T80SSILL
 62
     7
100
AcDbVertex
100
AcDb2dVertex
 10
133.82439
 20
49.990747
 30
0.0
  0
VERTEX
  5
4D
100
AcDbEntity
  8
T80SSILL
 62
     7
100
AcDbVertex
100
AcDb2dVertex
 10
134.222298
 20
48.875225
 30
0.0
  0
VERTEX
  5
4E
100
AcDbEntity
  8
T80SSILL
 62
     7
100
AcDbVertex
100
AcDb2dVertex
 10
134.335297
 20
48.868335
 30
0.0
  0
VERTEX
  5
4F
100
AcDbEntity
  8
T80SSILL
 62
     7
100
AcDbVertex
100
AcDb2dVertex
 10
134.366648
 20
48.799778
 30
0.0
  0
VERTEX
  5
50
100
AcDbEntity
  8
T80SSILL
 62
     7
100
AcDbVertex
100
AcDb2dVertex
 10
134.292234
 20
48.685745
 30
0.0
  0
VERTEX
  5
51
100
AcDbEntity
  8
T80SSILL
 62
     7
100
AcDbVertex
100
AcDb2dVertex
 10
134.786605
 20
47.439998
 30
0.0
  0
VERTEX
  5
52
100
AcDbEntity
  8
T80SSILL
 62
     7
100
AcDbVertex
100
AcDb2dVertex
 10
134.921997
 20
47.302539
 30
0.0
  0
VERTEX
  5
53
100
AcDbEntity
  8
T80SSILL
 62
     7
100
AcDbVertex
100
AcDb2dVertex
 10
135.214486
 20
46.800589
 30
0.0
  0
VERTEX
  5
54
100
AcDbEntity
  8
T80SSILL
 62
     7
100
AcDbVertex
100
AcDb2dVertex
 10
135.359869
 20
46.765104
 30
0.0
  0
VERTEX
  5
55
100
AcDbEntity
  8
T80SSILL
 62
     7
100
AcDbVertex
100
AcDb2dVertex
 10
135.46081
 20
46.783363
 30
0.0
  0
VERTEX
  5
56
100
AcDbEntity
  8
T80SSILL
 62
     7
100
AcDbVertex
100
AcDb2dVertex
 10
135.519377
 20
46.574935
 30
0.0
  0
VERTEX
  5
57
100
AcDbEntity
  8
T80SSILL
 62
     7
100
AcDbVertex
100
AcDb2dVertex
 10
135.340232
 20
46.454701
 30
0.0
  0
VERTEX
  5
58
100
AcDbEntity
  8
T80SSILL
 62
     7
100
AcDbVertex
100
AcDb2dVertex
 10
135.338509
 20
46.383388
 30
0.0
  0
VERTEX
  5
59
100
AcDbEntity
  8
T80SSILL
 62
     7
100
AcDbVertex
100
AcDb2dVertex
 10
135.410167
 20
46.339979
 30
0.0
  0
VERTEX
  5
5A
100
AcDbEntity
  8
T80SSILL
 62
     7
100
AcDbVertex
100
AcDb2dVertex
 10
135.458743
 20
46.344803
 30
0.0
  0
VERTEX
  5
5B
100
AcDbEntity
  8
T80SSILL
 62
     7
100
AcDbVertex
100
AcDb2dVertex
 10
135.59758
 20
46.424729
 30
0.0
  0
VERTEX
  5
5C
100
AcDbEntity
  8
T80SSILL
 62
     7
100
AcDbVertex
100
AcDb2dVertex
 10
135.726771
 20
46.557709
 30
0.0
  0
VERTEX
  5
5D
100
AcDbEntity
  8
T80SSILL
 62
     7
100
AcDbVertex
100
AcDb2dVertex
 10
135.853895
 20
46.433341
 30
0.0
  0
VERTEX
  5
5E
100
AcDbEntity
  8
T80SSILL
 62
     7
100
AcDbVertex
100
AcDb2dVertex
 10
135.863542
 20
46.37822
 30
0.0
  0
VERTEX
  5
5F
100
AcDbEntity
  8
T80SSILL
 62
     7
100
AcDbVertex
100
AcDb2dVertex
 10
135.863542
 20
46.37822
 30
0.0
  0
VERTEX
  5
60
100
AcDbEntity
  8
T80SSILL
 62
     7
100
AcDbVertex
100
AcDb2dVertex
 10
135.817033
 20
46.263498
 30
0.0
  0
VERTEX
  5
61
100
AcDbEntity
  8
T80SSILL
 62
     7
100
AcDbVertex
100
AcDb2dVertex
 10
135.802219
 20
46.190462
 30
0.0
  0
VERTEX
  5
62
100
AcDbEntity
  8
T80SSILL
 62
     7
100
AcDbVertex
100
AcDb2dVertex
 10
135.662693
 20
46.201142
 30
0.0
  0
VERTEX
  5
63
100
AcDbEntity
  8
T80SSILL
 62
     7
100
AcDbVertex
100
AcDb2dVertex
 10
135.582766
 20
46.149466
 30
0.0
  0
VERTEX
  5
64
100
AcDbEntity
  8
T80SSILL
 62
     7
100
AcDbVertex
100
AcDb2dVertex
 10
135.506974
 20
46.01993
 30
0.0
  0
VERTEX
  5
65
100
AcDbEntity
  8
T80SSILL
 62
     7
100
AcDbVertex
100
AcDb2dVertex
 10
135.464255
 20
45.865245
 30
0.0
  0
VERTEX
  5
66
100
AcDbEntity
  8
T80SSILL
 62
     7
100
AcDbVertex
100
AcDb2dVertex
 10
135.424981
 20
45.743633
 30
0.0
  0
VERTEX
  5
67
100
AcDbEntity
  8
T80SSILL
 62
     7
100
AcDbVertex
100
AcDb2dVertex
 10
135.486304
 20
45.552086
 30
0.0
  0
VERTEX
  5
68
100
AcDbEntity
  8
T80SSILL
 62
     7
100
AcDbVertex
100
AcDb2dVertex
 10
135.434627
 20
45.432886
 30
0.0
  0
VERTEX
  5
69
100
AcDbEntity
  8
T80SSILL
 62
     7
100
AcDbVertex
100
AcDb2dVertex
 10
135.631687
 20
44.698736
 30
0.0
  0
VERTEX
  5
6A
100
AcDbEntity
  8
T80SSILL
 62
     7
100
AcDbVertex
100
AcDb2dVertex
 10
135.768113
 20
44.680821
 30
0.0
  0
VERTEX
  5
6B
100
AcDbEntity
  8
T80SSILL
 62
     7
100
AcDbVertex
100
AcDb2dVertex
 10
135.828057
 20
44.560243
 30
0.0
  0
VERTEX
  5
6C
100
AcDbEntity
  8
T80SSILL
 62
     7
100
AcDbVertex
100
AcDb2dVertex
 10
135.835636
 20
44.490652
 30
0.0
  0
VERTEX
  5
6D
100
AcDbEntity
  8
T80SSILL
 62
     7
100
AcDbVertex
100
AcDb2dVertex
 10
135.728149
 20
44.412104
 30
0.0
  0
VERTEX
  5
6E
100
AcDbEntity
  8
T80SSILL
 62
     7
100
AcDbVertex
100
AcDb2dVertex
 10
136.30727
 20
42.747089
 30
0.0
  0
VERTEX
  5
6F
100
AcDbEntity
  8
T80SSILL
 62
     7
100
AcDbVertex
100
AcDb2dVertex
 10
136.469534
 20
42.650627
 30
0.0
  0
VERTEX
  5
70
100
AcDbEntity
  8
T80SSILL
 62
     7
100
AcDbVertex
100
AcDb2dVertex
 10
136.513287
 20
42.599639
 30
0.0
  0
VERTEX
  5
71
100
AcDbEntity
  8
T80SSILL
 62
     7
100
AcDbVertex
100
AcDb2dVertex
 10
136.47608
 20
42.392933
 30
0.0
  0
VERTEX
  5
72
100
AcDbEntity
  8
T80SSILL
 62
     7
100
AcDbVertex
100
AcDb2dVertex
 10
137.010414
 20
40.724474
 30
0.0
  0
VERTEX
  5
73
100
AcDbEntity
  8
T80SSILL
 62
     7
100
AcDbVertex
100
AcDb2dVertex
 10
137.101709
 20
40.674175
 30
0.0
  0
VERTEX
  5
74
100
AcDbEntity
  8
T80SSILL
 62
     7
100
AcDbVertex
100
AcDb2dVertex
 10
137.086551
 20
40.482973
 30
0.0
  0
VERTEX
  5
75
100
AcDbEntity
  8
T80SSILL
 62
     7
100
AcDbVertex
100
AcDb2dVertex
 10
137.660503
 20
38.836561
 30
0.0
  0
VERTEX
  5
76
100
AcDbEntity
  8
T80SSILL
 62
     7
100
AcDbVertex
100
AcDb2dVertex
 10
137.857907
 20
38.615731
 30
0.0
  0
VERTEX
  5
77
100
AcDbEntity
  8
T80SSILL
 62
     7
100
AcDbVertex
100
AcDb2dVertex
 10
137.799341
 20
38.411781
 30
0.0
  0
VERTEX
  5
78
100
AcDbEntity
  8
T80SSILL
 62
     7
100
AcDbVertex
100
AcDb2dVertex
 10
138.375361
 20
36.768815
 30
0.0
  0
VERTEX
  5
79
100
AcDbEntity
  8
T80SSILL
 62
     7
100
AcDbVertex
100
AcDb2dVertex
 10
138.573109
 20
36.576234
 30
0.0
  0
VERTEX
  5
7A
100
AcDbEntity
  8
T80SSILL
 62
     7
100
AcDbVertex
100
AcDb2dVertex
 10
138.717114
 20
36.359538
 30
0.0
  0
VERTEX
  5
7B
100
AcDbEntity
  8
T80SSILL
 62
     7
100
AcDbVertex
100
AcDb2dVertex
 10
138.95517
 20
35.18166
 30
0.0
  0
VERTEX
  5
7C
100
AcDbEntity
  8
T80SSILL
 62
     7
100
AcDbVertex
100
AcDb2dVertex
 10
138.789117
 20
35.011816
 30
0.0
  0
VERTEX
  5
7D
100
AcDbEntity
  8
T80SSILL
 62
     7
100
AcDbVertex
100
AcDb2dVertex
 10
138.907628
 20
34.470247
 30
0.0
  0
VERTEX
  5
7E
100
AcDbEntity
  8
T80SSILL
 62
     7
100
AcDbVertex
100
AcDb2dVertex
 10
139.037853
 20
34.407891
 30
0.0
  0
VERTEX
  5
7F
100
AcDbEntity
  8
T80SSILL
 62
     7
100
AcDbVertex
100
AcDb2dVertex
 10
139.035441
 20
34.253551
 30
0.0
  0
VERTEX
  5
80
100
AcDbEntity
  8
T80SSILL
 62
     7
100
AcDbVertex
100
AcDb2dVertex
 10
138.967917
 20
34.140552
 30
0.0
  0
VERTEX
  5
81
100
AcDbEntity
  8
T80SSILL
 62
     7
100
AcDbVertex
100
AcDb2dVertex
 10
139.359969
 20
32.256774
 30
0.0
  0
VERTEX
  5
82
100
AcDbEntity
  8
T80SSILL
 62
     7
100
AcDbVertex
100
AcDb2dVertex
 10
139.492261
 20
32.18546
 30
0.0
  0
VERTEX
  5
83
100
AcDbEntity
  8
T80SSILL
 62
     7
100
AcDbVertex
100
AcDb2dVertex
 10
139.508797
 20
32.117592
 30
0.0
  0
VERTEX
  5
84
100
AcDbEntity
  8
T80SSILL
 62
     7
100
AcDbVertex
100
AcDb2dVertex
 10
139.429215
 20
31.912264
 30
0.0
  0
VERTEX
  5
85
100
AcDbEntity
  8
T80SSILL
 62
     7
100
AcDbVertex
100
AcDb2dVertex
 10
139.830914
 20
29.954416
 30
0.0
  0
VERTEX
  5
86
100
AcDbEntity
  8
T80SSILL
 62
     7
100
AcDbVertex
100
AcDb2dVertex
 10
139.870877
 20
29.968886
 30
0.0
  0
VERTEX
  5
87
100
AcDbEntity
  8
T80SSILL
 62
     7
100
AcDbVertex
100
AcDb2dVertex
 10
139.96665
 20
29.850374
 30
0.0
  0
VERTEX
  5
88
100
AcDbEntity
  8
T80SSILL
 62
     7
100
AcDbVertex
100
AcDb2dVertex
 10
139.869843
 20
29.784918
 30
0.0
  0
VERTEX
  5
89
100
AcDbEntity
  8
T80SSILL
 62
     7
100
AcDbVertex
100
AcDb2dVertex
 10
140.414168
 20
27.207642
 30
0.0
  0
VERTEX
  5
8A
100
AcDbEntity
  8
T80SSILL
 62
     7
100
AcDbVertex
100
AcDb2dVertex
 10
140.563341
 20
27.007482
 30
0.0
  0
VERTEX
  5
8B
100
AcDbEntity
  8
T80SSILL
 62
     7
100
AcDbVertex
100
AcDb2dVertex
 10
140.664627
 20
26.915842
 30
0.0
  0
VERTEX
  5
8C
100
AcDbEntity
  8
T80SSILL
 62
     7
100
AcDbVertex
100
AcDb2dVertex
 10
140.92921
 20
26.802843
 30
0.0
  0
VERTEX
  5
8D
100
AcDbEntity
  8
T80SSILL
 62
     7
100
AcDbVertex
100
AcDb2dVertex
 10
141.134882
 20
26.642301
 30
0.0
  0
VERTEX
  5
8E
100
AcDbEntity
  8
T80SSILL
 62
     7
100
AcDbVertex
100
AcDb2dVertex
 10
141.219976
 20
26.607506
 30
0.0
  0
VERTEX
  5
8F
100
AcDbEntity
  8
T80SSILL
 62
     7
100
AcDbVertex
100
AcDb2dVertex
 10
141.567242
 20
26.54136
 30
0.0
  0
VERTEX
  5
90
100
AcDbEntity
  8
T80SSILL
 62
     7
100
AcDbVertex
100
AcDb2dVertex
 10
141.788417
 20
26.569265
 30
0.0
  0
VERTEX
  5
91
100
AcDbEntity
  8
T80SSILL
 62
     7
100
AcDbVertex
100
AcDb2dVertex
 10
142.196316
 20
26.570643
 30
0.0
  0
VERTEX
  5
92
100
AcDbEntity
  8
T80SSILL
 62
     7
100
AcDbVertex
100
AcDb2dVertex
 10
142.500174
 20
26.714648
 30
0.0
  0
VERTEX
  5
93
100
AcDbEntity
  8
T80SSILL
 62
     7
100
AcDbVertex
100
AcDb2dVertex
 10
142.559774
 20
26.613363
 30
0.0
  0
VERTEX
  5
94
100
AcDbEntity
  8
T80SSILL
 62
     7
100
AcDbVertex
100
AcDb2dVertex
 10
142.535314
 20
26.39012
 30
0.0
  0
VERTEX
  5
95
100
AcDbEntity
  8
T80SSILL
 62
     7
100
AcDbVertex
100
AcDb2dVertex
 10
142.25316
 20
26.386675
 30
0.0
  0
VERTEX
  5
96
100
AcDbEntity
  8
T80SSILL
 62
     7
100
AcDbVertex
100
AcDb2dVertex
 10
141.848017
 20
26.256795
 30
0.0
  0
VERTEX
  5
97
100
AcDbEntity
  8
T80SSILL
 62
     7
100
AcDbVertex
100
AcDb2dVertex
 10
141.624775
 20
26.317773
 30
0.0
  0
VERTEX
  5
98
100
AcDbEntity
  8
T80SSILL
 62
     7
100
AcDbVertex
100
AcDb2dVertex
 10
141.569309
 20
26.300892
 30
0.0
  0
VERTEX
  5
99
100
AcDbEntity
  8
T80SSILL
 62
     7
100
AcDbVertex
100
AcDb2dVertex
 10
141.316439
 20
26.32363
 30
0.0
  0
VERTEX
  5
9A
100
AcDbEntity
  8
T80SSILL
 62
     7
100
AcDbVertex
100
AcDb2dVertex
 10
141.030496
 20
26.430428
 30
0.0
  0
VERTEX
  5
9B
100
AcDbEntity
  8
T80SSILL
 62
     7
100
AcDbVertex
100
AcDb2dVertex
 10
140.768324
 20
26.568576
 30
0.0
  0
VERTEX
  5
9C
100
AcDbEntity
  8
T80SSILL
 62
     7
100
AcDbVertex
100
AcDb2dVertex
 10
140.676685
 20
26.598204
 30
0.0
  0
VERTEX
  5
9D
100
AcDbEntity
  8
T80SSILL
 62
     7
100
AcDbVertex
100
AcDb2dVertex
 10
140.552317
 20
26.591314
 30
0.0
  0
VERTEX
  5
9E
100
AcDbEntity
  8
T80SSILL
 62
     7
100
AcDbVertex
100
AcDb2dVertex
 10
140.662904
 20
26.02184
 30
0.0
  0
VERTEX
  5
9F
100
AcDbEntity
  8
T80SSILL
 62
     7
100
AcDbVertex
100
AcDb2dVertex
 10
140.875122
 20
25.413436
 30
0.0
  0
VERTEX
  5
A0
100
AcDbEntity
  8
T80SSILL
 62
     7
100
AcDbVertex
100
AcDb2dVertex
 10
140.882012
 20
25.330065
 30
0.0
  0
VERTEX
  5
A1
100
AcDbEntity
  8
T80SSILL
 62
     7
100
AcDbVertex
100
AcDb2dVertex
 10
140.885113
 20
25.209831
 30
0.0
  0
VERTEX
  5
A2
100
AcDbEntity
  8
T80SSILL
 62
     7
100
AcDbVertex
100
AcDb2dVertex
 10
140.731806
 20
25.006915
 30
0.0
  0
VERTEX
  5
A3
100
AcDbEntity
  8
T80SSILL
 62
     7
100
AcDbVertex
100
AcDb2dVertex
 10
140.873744
 20
22.961561
 30
0.0
  0
VERTEX
  5
A4
100
AcDbEntity
  8
T80SSILL
 62
     7
100
AcDbVertex
100
AcDb2dVertex
 10
140.942301
 20
22.88198
 30
0.0
  0
VERTEX
  5
A5
100
AcDbEntity
  8
T80SSILL
 62
     7
100
AcDbVertex
100
AcDb2dVertex
 10
140.949536
 20
22.839605
 30
0.0
  0
VERTEX
  5
A6
100
AcDbEntity
  8
T80SSILL
 62
     7
100
AcDbVertex
100
AcDb2dVertex
 10
140.948503
 20
22.80102
 30
0.0
  0
VERTEX
  5
A7
100
AcDbEntity
  8
T80SSILL
 62
     7
100
AcDbVertex
100
AcDb2dVertex
 10
140.878912
 20
22.699045
 30
0.0
  0
VERTEX
  5
A8
100
AcDbEntity
  8
T80SSILL
 62
     7
100
AcDbVertex
100
AcDb2dVertex
 10
141.029807
 20
20.589958
 30
0.0
  0
VERTEX
  5
A9
100
AcDbEntity
  8
T80SSILL
 62
     7
100
AcDbVertex
100
AcDb2dVertex
 10
141.097331
 20
20.47627
 30
0.0
  0
VERTEX
  5
AA
100
AcDbEntity
  8
T80SSILL
 62
     7
100
AcDbVertex
100
AcDb2dVertex
 10
141.040831
 20
20.408401
 30
0.0
  0
VERTEX
  5
AB
100
AcDbEntity
  8
T80SSILL
 62
     7
100
AcDbVertex
100
AcDb2dVertex
 10
141.110767
 20
19.314928
 30
0.0
  0
VERTEX
  5
AC
100
AcDbEntity
  8
T80SSILL
 62
     7
100
AcDbVertex
100
AcDb2dVertex
 10
141.244092
 20
18.961461
 30
0.0
  0
VERTEX
  5
AD
100
AcDbEntity
  8
T80SSILL
 62
     7
100
AcDbVertex
100
AcDb2dVertex
 10
141.480425
 20
18.60076
 30
0.0
  0
VERTEX
  5
AE
100
AcDbEntity
  8
T80SSILL
 62
     7
100
AcDbVertex
100
AcDb2dVertex
 10
141.596181
 20
18.444352
 30
0.0
  0
VERTEX
  5
AF
100
AcDbEntity
  8
T80SSILL
 62
     7
100
AcDbVertex
100
AcDb2dVertex
 10
141.707457
 20
18.39681
 30
0.0
  0
VERTEX
  5
B0
100
AcDbEntity
  8
T80SSILL
 62
     7
100
AcDbVertex
100
AcDb2dVertex
 10
141.889358
 20
18.24557
 30
0.0
  0
VERTEX
  5
B1
100
AcDbEntity
  8
T80SSILL
 62
     7
100
AcDbVertex
100
AcDb2dVertex
 10
142.075738
 20
18.1684
 30
0.0
  0
VERTEX
  5
B2
100
AcDbEntity
  8
T80SSILL
 62
     7
100
AcDbVertex
100
AcDb2dVertex
 10
142.310349
 20
18.121891
 30
0.0
  0
VERTEX
  5
B3
100
AcDbEntity
  8
T80SSILL
 62
     7
100
AcDbVertex
100
AcDb2dVertex
 10
142.847439
 20
18.09123
 30
0.0
  0
VERTEX
  5
B4
100
AcDbEntity
  8
T80SSILL
 62
     7
100
AcDbVertex
100
AcDb2dVertex
 10
142.910829
 20
17.891414
 30
0.0
  0
VERTEX
  5
B5
100
AcDbEntity
  8
T80SSILL
 62
     7
100
AcDbVertex
100
AcDb2dVertex
 10
146.337321
 20
16.837904
 30
0.0
  0
VERTEX
  5
B6
100
AcDbEntity
  8
T80SSILL
 62
     7
100
AcDbVertex
100
AcDb2dVertex
 10
149.168845
 20
15.959405
 30
0.0
  0
VERTEX
  5
B7
100
AcDbEntity
  8
T80SSILL
 62
     7
100
AcDbVertex
100
AcDb2dVertex
 10
152.457533
 20
14.988921
 30
0.0
  0
VERTEX
  5
B8
100
AcDbEntity
  8
T80SSILL
 62
     7
100
AcDbVertex
100
AcDb2dVertex
 10
152.701101
 20
14.897626
 30
0.0
  0
VERTEX
  5
B9
100
AcDbEntity
  8
T80SSILL
 62
     7
100
AcDbVertex
100
AcDb2dVertex
 10
152.885069
 20
14.967217
 30
0.0
  0
VERTEX
  5
BA
100
AcDbEntity
  8
T80SSILL
 62
     7
100
AcDbVertex
100
AcDb2dVertex
 10
153.329487
 20
14.836304
 30
0.0
  0
VERTEX
  5
BB
100
AcDbEntity
  8
T80SSILL
 62
     7
100
AcDbVertex
100
AcDb2dVertex
 10
153.42905
 20
14.648891
 30
0.0
  0
VERTEX
  5
BC
100
AcDbEntity
  8
T80SSILL
 62
     7
100
AcDbVertex
100
AcDb2dVertex
 10
158.437185
 20
13.13925
 30
0.0
  0
VERTEX
  5
BD
100
AcDbEntity
  8
T80SSILL
 62
     7
100
AcDbVertex
100
AcDb2dVertex
 10
158.70418
 20
13.164743
 30
0.0
  0
VERTEX
  5
BE
100
AcDbEntity
  8
T80SSILL
 62
     7
100
AcDbVertex
100
AcDb2dVertex
 10
158.784451
 20
13.21263
 30
0.0
  0
VERTEX
  5
BF
100
AcDbEntity
  8
T80SSILL
 62
     7
100
AcDbVertex
100
AcDb2dVertex
 10
159.074873
 20
13.230545
 30
0.0
  0
VERTEX
  5
C0
100
AcDbEntity
  8
T80SSILL
 62
     7
100
AcDbVertex
100
AcDb2dVertex
 10
159.53686
 20
13.545082
 30
0.0
  0
VERTEX
  5
C1
100
AcDbEntity
  8
T80SSILL
 62
     7
100
AcDbVertex
100
AcDb2dVertex
 10
159.55753
 20
13.865476
 30
0.0
  0
VERTEX
  5
C2
100
AcDbEntity
  8
T80SSILL
 62
     7
100
AcDbVertex
100
AcDb2dVertex
 10
159.874824
 20
14.036353
 30
0.0
  0
VERTEX
  5
C3
100
AcDbEntity
  8
T80SSILL
 62
     7
100
AcDbVertex
100
AcDb2dVertex
 10
159.878269
 20
14.081139
 30
0.0
  0
VERTEX
  5
C4
100
AcDbEntity
  8
T80SSILL
 62
     7
100
AcDbVertex
100
AcDb2dVertex
 10
159.70498
 20
14.304036
 30
0.0
  0
VERTEX
  5
C5
100
AcDbEntity
  8
T80SSILL
 62
     7
100
AcDbVertex
100
AcDb2dVertex
 10
159.792141
 20
14.483526
 30
0.0
  0
VERTEX
  5
C6
100
AcDbEntity
  8
T80SSILL
 62
     7
100
AcDbVertex
100
AcDb2dVertex
 10
160.083596
 20
14.754655
 30
0.0
  0
VERTEX
  5
C7
100
AcDbEntity
  8
T80SSILL
 62
     7
100
AcDbVertex
100
AcDb2dVertex
 10
160.167312
 20
14.763612
 30
0.0
  0
VERTEX
  5
C8
100
AcDbEntity
  8
T80SSILL
 62
     7
100
AcDbVertex
100
AcDb2dVertex
 10
160.503209
 20
14.345722
 30
0.0
  0
VERTEX
  5
C9
100
AcDbEntity
  8
T80SSILL
 62
     7
100
AcDbVertex
100
AcDb2dVertex
 10
160.576245
 20
14.322295
 30
0.0
  0
VERTEX
  5
CA
100
AcDbEntity
  8
T80SSILL
 62
     7
100
AcDbVertex
100
AcDb2dVertex
 10
160.739887
 20
14.37156
 30
0.0
  0
VERTEX
  5
CB
100
AcDbEntity
  8
T80SSILL
 62
     7
100
AcDbVertex
100
AcDb2dVertex
 10
160.85392
 20
14.219976
 30
0.0
  0
VERTEX
  5
CC
100
AcDbEntity
  8
T80SSILL
 62
     7
100
AcDbVertex
100
AcDb2dVertex
 10
160.534559
 20
13.978819
 30
0.0
  0
VERTEX
  5
CD
100
AcDbEntity
  8
T80SSILL
 62
     7
100
AcDbVertex
100
AcDb2dVertex
 10
160.432929
 20
13.76798
 30
0.0
  0
VERTEX
  5
CE
100
AcDbEntity
  8
T80SSILL
 62
     7
100
AcDbVertex
100
AcDb2dVertex
 10
160.352314
 20
13.467223
 30
0.0
  0
VERTEX
  5
CF
100
AcDbEntity
  8
T80SSILL
 62
     7
100
AcDbVertex
100
AcDb2dVertex
 10
160.11977
 20
13.466189
 30
0.0
  0
VERTEX
  5
D0
100
AcDbEntity
  8
T80SSILL
 62
     7
100
AcDbVertex
100
AcDb2dVertex
 10
160.099444
 20
13.565063
 30
0.0
  0
VERTEX
  5
D1
100
AcDbEntity
  8
T80SSILL
 62
     7
100
AcDbVertex
100
AcDb2dVertex
 10
159.995058
 20
13.597792
 30
0.0
  0
VERTEX
  5
D2
100
AcDbEntity
  8
T80SSILL
 62
     7
100
AcDbVertex
100
AcDb2dVertex
 10
159.236447
 20
13.070692
 30
0.0
  0
VERTEX
  5
D3
100
AcDbEntity
  8
T80SSILL
 62
     7
100
AcDbVertex
100
AcDb2dVertex
 10
159.37494
 20
12.901883
 30
0.0
  0
VERTEX
  5
D4
100
AcDbEntity
  8
T80SSILL
 62
     7
100
AcDbVertex
100
AcDb2dVertex
 10
159.467958
 20
12.830225
 30
0.0
  0
VERTEX
  5
D5
100
AcDbEntity
  8
T80SSILL
 62
     7
100
AcDbVertex
100
AcDb2dVertex
 10
161.509866
 20
12.185992
 30
0.0
  0
VERTEX
  5
D6
100
AcDbEntity
  8
T80SSILL
 62
     7
100
AcDbVertex
100
AcDb2dVertex
 10
161.53157
 20
12.230089
 30
0.0
  0
VERTEX
  5
D7
100
AcDbEntity
  8
T80SSILL
 62
     7
100
AcDbVertex
100
AcDb2dVertex
 10
161.666618
 20
12.30657
 30
0.0
  0
VERTEX
  5
D8
100
AcDbEntity
  8
T80SSILL
 62
     7
100
AcDbVertex
100
AcDb2dVertex
 10
161.923622
 20
12.259372
 30
0.0
  0
VERTEX
  5
D9
100
AcDbEntity
  8
T80SSILL
 62
     7
100
AcDbVertex
100
AcDb2dVertex
 10
162.182693
 20
12.131904
 30
0.0
  0
VERTEX
  5
DA
100
AcDbEntity
  8
T80SSILL
 62
     7
100
AcDbVertex
100
AcDb2dVertex
 10
162.306372
 20
11.94139
 30
0.0
  0
VERTEX
  5
DB
100
AcDbEntity
  8
T80SSILL
 62
     7
100
AcDbVertex
100
AcDb2dVertex
 10
163.792931
 20
11.484915
 30
0.0
  0
VERTEX
  5
DC
100
AcDbEntity
  8
T80SSILL
 62
     7
100
AcDbVertex
100
AcDb2dVertex
 10
164.584614
 20
11.426004
 30
0.0
  0
VERTEX
  5
DD
100
AcDbEntity
  8
T80SSILL
 62
     7
100
AcDbVertex
100
AcDb2dVertex
 10
164.596327
 20
11.238246
 30
0.0
  0
VERTEX
  5
DE
100
AcDbEntity
  8
T80SSILL
 62
     7
100
AcDbVertex
100
AcDb2dVertex
 10
163.913509
 20
11.226188
 30
0.0
  0
VERTEX
  5
DF
100
AcDbEntity
  8
T80SSILL
 62
     7
100
AcDbVertex
100
AcDb2dVertex
 10
163.740565
 20
11.305081
 30
0.0
  0
VERTEX
  5
E0
100
AcDbEntity
  8
T80SSILL
 62
     7
100
AcDbVertex
100
AcDb2dVertex
 10
160.595193
 20
12.290378
 30
0.0
  0
VERTEX
  5
E1
100
AcDbEntity
  8
T80SSILL
 62
     7
100
AcDbVertex
100
AcDb2dVertex
 10
152.849929
 20
14.653714
 30
0.0
  0
VERTEX
  5
E2
100
AcDbEntity
  8
T80SSILL
 62
     7
100
AcDbVertex
100
AcDb2dVertex
 10
152.662861
 20
14.572409
 30
0.0
  0
VERTEX
  5
E3
100
AcDbEntity
  8
T80SSILL
 62
     7
100
AcDbVertex
100
AcDb2dVertex
 10
152.578456
 20
14.608927
 30
0.0
  0
VERTEX
  5
E4
100
AcDbEntity
  8
T80SSILL
 62
     7
100
AcDbVertex
100
AcDb2dVertex
 10
152.477515
 20
14.77567
 30
0.0
  0
VERTEX
  5
E5
100
AcDbEntity
  8
T80SSILL
 62
     7
100
AcDbVertex
100
AcDb2dVertex
 10
152.395866
 20
14.802542
 30
0.0
  0
VERTEX
  5
E6
100
AcDbEntity
  8
T80SSILL
 62
     7
100
AcDbVertex
100
AcDb2dVertex
 10
146.335598
 20
16.636711
 30
0.0
  0
VERTEX
  5
E7
100
AcDbEntity
  8
T80SSILL
 62
     7
100
AcDbVertex
100
AcDb2dVertex
 10
142.448497
 20
17.827336
 30
0.0
  0
VERTEX
  5
E8
100
AcDbEntity
  8
T80SSILL
 62
     7
100
AcDbVertex
100
AcDb2dVertex
 10
142.119146
 20
17.925176
 30
0.0
  0
VERTEX
  5
E9
100
AcDbEntity
  8
T80SSILL
 62
     7
100
AcDbVertex
100
AcDb2dVertex
 10
142.006491
 20
17.937234
 30
0.0
  0
VERTEX
  5
EA
100
AcDbEntity
  8
T80SSILL
 62
     7
100
AcDbVertex
100
AcDb2dVertex
 10
141.603415
 20
18.12947
 30
0.0
  0
VERTEX
  5
EB
100
AcDbEntity
  8
T80SSILL
 62
     7
100
AcDbVertex
100
AcDb2dVertex
 10
141.475602
 20
18.236957
 30
0.0
  0
VERTEX
  5
EC
100
AcDbEntity
  8
T80SSILL
 62
     7
100
AcDbVertex
100
AcDb2dVertex
 10
141.403944
 20
18.363048
 30
0.0
  0
VERTEX
  5
ED
100
AcDbEntity
  8
T80SSILL
 62
     7
100
AcDbVertex
100
AcDb2dVertex
 10
141.246503
 20
18.546672
 30
0.0
  0
VERTEX
  5
EE
100
AcDbEntity
  8
T80SSILL
 62
     7
100
AcDbVertex
100
AcDb2dVertex
 10
141.191382
 20
18.535303
 30
0.0
  0
VERTEX
  5
EF
100
AcDbEntity
  8
T80SSILL
 62
     7
100
AcDbVertex
100
AcDb2dVertex
 10
141.17519
 20
18.514977
 30
0.0
  0
VERTEX
  5
F0
100
AcDbEntity
  8
T80SSILL
 62
     7
100
AcDbVertex
100
AcDb2dVertex
 10
141.200684
 20
18.215598
 30
0.0
  0
VERTEX
  5
F1
100
AcDbEntity
  8
T80SSILL
 62
     7
100
AcDbVertex
100
AcDb2dVertex
 10
141.266485
 20
18.110522
 30
0.0
  0
VERTEX
  5
F2
100
AcDbEntity
  8
T80SSILL
 62
     7
100
AcDbVertex
100
AcDb2dVertex
 10
141.209985
 20
17.989944
 30
0.0
  0
VERTEX
  5
F3
100
AcDbEntity
  8
T80SSILL
 62
     7
100
AcDbVertex
100
AcDb2dVertex
 10
141.362259
 20
15.53807
 30
0.0
  0
VERTEX
  5
F4
100
AcDbEntity
  8
T80SSILL
 62
     7
100
AcDbVertex
100
AcDb2dVertex
 10
141.464233
 20
15.39062
 30
0.0
  0
VERTEX
  5
F5
100
AcDbEntity
  8
T80SSILL
 62
     7
100
AcDbVertex
100
AcDb2dVertex
 10
141.540025
 20
15.020616
 30
0.0
  0
VERTEX
  5
F6
100
AcDbEntity
  8
T80SSILL
 62
     7
100
AcDbVertex
100
AcDb2dVertex
 10
141.435295
 20
14.555528
 30
0.0
  0
VERTEX
  5
F7
100
AcDbEntity
  8
T80SSILL
 62
     7
100
AcDbVertex
100
AcDb2dVertex
 10
141.669561
 20
10.781426
 30
0.0
  0
VERTEX
  5
F8
100
AcDbEntity
  8
T80SSILL
 62
     7
100
AcDbVertex
100
AcDb2dVertex
 10
141.754999
 20
10.687031
 30
0.0
  0
VERTEX
  5
F9
100
AcDbEntity
  8
T80SSILL
 62
     7
100
AcDbVertex
100
AcDb2dVertex
 10
141.759134
 20
10.633976
 30
0.0
  0
VERTEX
  5
FA
100
AcDbEntity
  8
T80SSILL
 62
     7
100
AcDbVertex
100
AcDb2dVertex
 10
141.687476
 20
10.446908
 30
0.0
  0
VERTEX
  5
FB
100
AcDbEntity
  8
T80SSILL
 62
     7
100
AcDbVertex
100
AcDb2dVertex
 10
141.842849
 20
8.456331
 30
0.0
  0
VERTEX
  5
FC
100
AcDbEntity
  8
T80SSILL
 62
     7
100
AcDbVertex
100
AcDb2dVertex
 10
141.947925
 20
8.295445
 30
0.0
  0
VERTEX
  5
FD
100
AcDbEntity
  8
T80SSILL
 62
     7
100
AcDbVertex
100
AcDb2dVertex
 10
141.959983
 20
8.22172
 30
0.0
  0
VERTEX
  5
FE
100
AcDbEntity
  8
T80SSILL
 62
     7
100
AcDbVertex
100
AcDb2dVertex
 10
141.874544
 20
8.077371
 30
0.0
  0
VERTEX
  5
FF
100
AcDbEntity
  8
T80SSILL
 62
     7
100
AcDbVertex
100
AcDb2dVertex
 10
142.021994
 20
5.867687
 30
0.0
  0
VERTEX
  5
100
100
AcDbEntity
  8
T80SSILL
 62
     7
100
AcDbVertex
100
AcDb2dVertex
 10
142.09503
 20
5.720926
 30
0.0
  0
VERTEX
  5
101
100
AcDbEntity
  8
T80SSILL
 62
     7
100
AcDbVertex
100
AcDb2dVertex
 10
142.094686
 20
5.584844
 30
0.0
  0
VERTEX
  5
102
100
AcDbEntity
  8
T80SSILL
 62
     7
100
AcDbVertex
100
AcDb2dVertex
 10
142.026128
 20
5.481836
 30
0.0
  0
VERTEX
  5
103
100
AcDbEntity
  8
T80SSILL
 62
     7
100
AcDbVertex
100
AcDb2dVertex
 10
142.138439
 20
3.60357
 30
0.0
  0
VERTEX
  5
104
100
AcDbEntity
  8
T80SSILL
 62
     7
100
AcDbVertex
100
AcDb2dVertex
 10
142.340321
 20
3.323828
 30
0.0
  0
VERTEX
  5
105
100
AcDbEntity
  8
T80SSILL
 62
     7
100
AcDbVertex
100
AcDb2dVertex
 10
142.364092
 20
3.136415
 30
0.0
  0
VERTEX
  5
106
100
AcDbEntity
  8
T80SSILL
 62
     7
100
AcDbVertex
100
AcDb2dVertex
 10
142.363059
 20
2.862874
 30
0.0
  0
VERTEX
  5
107
100
AcDbEntity
  8
T80SSILL
 62
     7
100
AcDbVertex
100
AcDb2dVertex
 10
142.20424
 20
2.600358
 30
0.0
  0
VERTEX
  5
108
100
AcDbEntity
  8
T80SSILL
 62
     7
100
AcDbVertex
100
AcDb2dVertex
 10
142.331364
 20
0.855417
 30
0.0
  0
VERTEX
  5
109
100
AcDbEntity
  8
T80SSILL
 62
     7
100
AcDbVertex
100
AcDb2dVertex
 10
142.385452
 20
0.696598
 30
0.0
  0
VERTEX
  5
10A
100
AcDbEntity
  8
T80SSILL
 62
     7
100
AcDbVertex
100
AcDb2dVertex
 10
142.346522
 20
0.578432
 30
0.0
  0
VERTEX
  5
10B
100
AcDbEntity
  8
T80SSILL
 62
     7
100
AcDbVertex
100
AcDb2dVertex
 10
142.378906
 20
0.198437
 30
0.0
  0
VERTEX
  5
10C
100
AcDbEntity
  8
T80SSILL
 62
     7
100
AcDbVertex
100
AcDb2dVertex
 10
142.375461
 20
0.144005
 30
0.0
  0
VERTEX
  5
10D
100
AcDbEntity
  8
T80SSILL
 62
     7
100
AcDbVertex
100
AcDb2dVertex
 10
142.166344
 20
0.125057
 30
0.0
  0
VERTEX
  5
10E
100
AcDbEntity
  8
T80SSILL
 62
     7
100
AcDbVertex
100
AcDb2dVertex
 10
142.139472
 20
0.449585
 30
0.0
  0
VERTEX
  5
10F
100
AcDbEntity
  8
T80SSILL
 62
     7
100
AcDbVertex
100
AcDb2dVertex
 10
142.044732
 20
0.563618
 30
0.0
  0
VERTEX
  5
110
100
AcDbEntity
  8
T80SSILL
 62
     7
100
AcDbVertex
100
AcDb2dVertex
 10
142.125692
 20
0.760677
 30
0.0
  0
VERTEX
  5
111
100
AcDbEntity
  8
T80SSILL
 62
     7
100
AcDbVertex
100
AcDb2dVertex
 10
141.990644
 20
2.915929
 30
0.0
  0
VERTEX
  5
112
100
AcDbEntity
  8
T80SSILL
 62
     7
100
AcDbVertex
100
AcDb2dVertex
 10
141.855941
 20
3.073025
 30
0.0
  0
VERTEX
  5
113
100
AcDbEntity
  8
T80SSILL
 62
     7
100
AcDbVertex
100
AcDb2dVertex
 10
141.955504
 20
3.281453
 30
0.0
  0
VERTEX
  5
114
100
AcDbEntity
  8
T80SSILL
 62
     7
100
AcDbVertex
100
AcDb2dVertex
 10
141.814944
 20
5.450141
 30
0.0
  0
VERTEX
  5
115
100
AcDbEntity
  8
T80SSILL
 62
     7
100
AcDbVertex
100
AcDb2dVertex
 10
141.714003
 20
5.500784
 30
0.0
  0
VERTEX
  5
116
100
AcDbEntity
  8
T80SSILL
 62
     7
100
AcDbVertex
100
AcDb2dVertex
 10
141.69161
 20
5.594146
 30
0.0
  0
VERTEX
  5
117
100
AcDbEntity
  8
T80SSILL
 62
     7
100
AcDbVertex
100
AcDb2dVertex
 10
141.806331
 20
5.673383
 30
0.0
  0
VERTEX
  5
118
100
AcDbEntity
  8
T80SSILL
 62
     7
100
AcDbVertex
100
AcDb2dVertex
 10
141.647857
 20
8.013981
 30
0.0
  0
VERTEX
  5
119
100
AcDbEntity
  8
T80SSILL
 62
     7
100
AcDbVertex
100
AcDb2dVertex
 10
141.469057
 20
8.153507
 30
0.0
  0
VERTEX
  5
11A
100
AcDbEntity
  8
T80SSILL
 62
     7
100
AcDbVertex
100
AcDb2dVertex
 10
141.615129
 20
8.284766
 30
0.0
  0
VERTEX
  5
11B
100
AcDbEntity
  8
T80SSILL
 62
     7
100
AcDbVertex
100
AcDb2dVertex
 10
141.535202
 20
10.095508
 30
0.0
  0
VERTEX
  5
11C
100
AcDbEntity
  8
T80SSILL
 62
     7
100
AcDbVertex
100
AcDb2dVertex
 10
141.377762
 20
10.238135
 30
0.0
  0
VERTEX
  5
11D
100
AcDbEntity
  8
T80SSILL
 62
     7
100
AcDbVertex
100
AcDb2dVertex
 10
141.492139
 20
10.493761
 30
0.0
  0
VERTEX
  5
11E
100
AcDbEntity
  8
T80SSILL
 62
     7
100
AcDbVertex
100
AcDb2dVertex
 10
141.48077
 20
10.947824
 30
0.0
  0
VERTEX
  5
11F
100
AcDbEntity
  8
T80SSILL
 62
     7
100
AcDbVertex
100
AcDb2dVertex
 10
141.343655
 20
12.900505
 30
0.0
  0
VERTEX
  5
120
100
AcDbEntity
  8
T80SSILL
 62
     7
100
AcDbVertex
100
AcDb2dVertex
 10
141.247192
 20
12.916352
 30
0.0
  0
VERTEX
  5
121
100
AcDbEntity
  8
T80SSILL
 62
     7
100
AcDbVertex
100
AcDb2dVertex
 10
141.027051
 20
12.617662
 30
0.0
  0
VERTEX
  5
122
100
AcDbEntity
  8
T80SSILL
 62
     7
100
AcDbVertex
100
AcDb2dVertex
 10
140.423126
 20
12.161876
 30
0.0
  0
VERTEX
  5
123
100
AcDbEntity
  8
T80SSILL
 62
     7
100
AcDbVertex
100
AcDb2dVertex
 10
140.323907
 20
12.33482
 30
0.0
  0
VERTEX
  5
124
100
AcDbEntity
  8
T80SSILL
 62
     7
100
AcDbVertex
100
AcDb2dVertex
 10
140.812421
 20
12.735829
 30
0.0
  0
VERTEX
  5
125
100
AcDbEntity
  8
T80SSILL
 62
     7
100
AcDbVertex
100
AcDb2dVertex
 10
141.020505
 20
12.979053
 30
0.0
  0
VERTEX
  5
126
100
AcDbEntity
  8
T80SSILL
 62
     7
100
AcDbVertex
100
AcDb2dVertex
 10
141.072526
 20
13.151652
 30
0.0
  0
VERTEX
  5
127
100
AcDbEntity
  8
T80SSILL
 62
     7
100
AcDbVertex
100
AcDb2dVertex
 10
141.053923
 20
13.199883
 30
0.0
  0
VERTEX
  5
128
100
AcDbEntity
  8
T80SSILL
 62
     7
100
AcDbVertex
100
AcDb2dVertex
 10
141.085273
 20
13.351812
 30
0.0
  0
VERTEX
  5
129
100
AcDbEntity
  8
T80SSILL
 62
     7
100
AcDbVertex
100
AcDb2dVertex
 10
141.186903
 20
13.460333
 30
0.0
  0
VERTEX
  5
12A
100
AcDbEntity
  8
T80SSILL
 62
     7
100
AcDbVertex
100
AcDb2dVertex
 10
141.238924
 20
13.555073
 30
0.0
  0
VERTEX
  5
12B
100
AcDbEntity
  8
T80SSILL
 62
     7
100
AcDbVertex
100
AcDb2dVertex
 10
141.282677
 20
13.756266
 30
0.0
  0
VERTEX
  5
12C
100
AcDbEntity
  8
T80SSILL
 62
     7
100
AcDbVertex
100
AcDb2dVertex
 10
141.214808
 20
15.053345
 30
0.0
  0
VERTEX
  5
12D
100
AcDbEntity
  8
T80SSILL
 62
     7
100
AcDbVertex
100
AcDb2dVertex
 10
141.080794
 20
15.19046
 30
0.0
  0
VERTEX
  5
12E
100
AcDbEntity
  8
T80SSILL
 62
     7
100
AcDbVertex
100
AcDb2dVertex
 10
141.186903
 20
15.3479
 30
0.0
  0
VERTEX
  5
12F
100
AcDbEntity
  8
T80SSILL
 62
     7
100
AcDbVertex
100
AcDb2dVertex
 10
141.027395
 20
17.91174
 30
0.0
  0
VERTEX
  5
130
100
AcDbEntity
  8
T80SSILL
 62
     7
100
AcDbVertex
100
AcDb2dVertex
 10
140.911985
 20
17.988222
 30
0.0
  0
VERTEX
  5
131
100
AcDbEntity
  8
T80SSILL
 62
     7
100
AcDbVertex
100
AcDb2dVertex
 10
141.014648
 20
18.110522
 30
0.0
  0
VERTEX
  5
132
100
AcDbEntity
  8
T80SSILL
 62
     7
100
AcDbVertex
100
AcDb2dVertex
 10
140.873055
 20
20.310905
 30
0.0
  0
VERTEX
  5
133
100
AcDbEntity
  8
T80SSILL
 62
     7
100
AcDbVertex
100
AcDb2dVertex
 10
140.77487
 20
20.413224
 30
0.0
  0
VERTEX
  5
134
100
AcDbEntity
  8
T80SSILL
 62
     7
100
AcDbVertex
100
AcDb2dVertex
 10
140.850662
 20
20.51451
 30
0.0
  0
VERTEX
  5
135
100
AcDbEntity
  8
T80SSILL
 62
     7
100
AcDbVertex
100
AcDb2dVertex
 10
140.698044
 20
22.677341
 30
0.0
  0
VERTEX
  5
136
100
AcDbEntity
  8
T80SSILL
 62
     7
100
AcDbVertex
100
AcDb2dVertex
 10
140.691498
 20
22.737975
 30
0.0
  0
VERTEX
  5
137
100
AcDbEntity
  8
T80SSILL
 62
     7
100
AcDbVertex
100
AcDb2dVertex
 10
140.624664
 20
22.812733
 30
0.0
  0
VERTEX
  5
138
100
AcDbEntity
  8
T80SSILL
 62
     7
100
AcDbVertex
100
AcDb2dVertex
 10
140.599514
 20
22.921598
 30
0.0
  0
VERTEX
  5
139
100
AcDbEntity
  8
T80SSILL
 62
     7
100
AcDbVertex
100
AcDb2dVertex
 10
140.685642
 20
23.019439
 30
0.0
  0
VERTEX
  5
13A
100
AcDbEntity
  8
T80SSILL
 62
     7
100
AcDbVertex
100
AcDb2dVertex
 10
140.457576
 20
25.604983
 30
0.0
  0
VERTEX
  5
13B
100
AcDbEntity
  8
T80SSILL
 62
     7
100
AcDbVertex
100
AcDb2dVertex
 10
140.4655
 20
25.893682
 30
0.0
  0
VERTEX
  5
13C
100
AcDbEntity
  8
T80SSILL
 62
     7
100
AcDbVertex
100
AcDb2dVertex
 10
140.413135
 20
26.188238
 30
0.0
  0
VERTEX
  5
13D
100
AcDbEntity
  8
T80SSILL
 62
     7
100
AcDbVertex
100
AcDb2dVertex
 10
139.82299
 20
29.171002
 30
0.0
  0
VERTEX
  5
13E
100
AcDbEntity
  8
T80SSILL
 62
     7
100
AcDbVertex
100
AcDb2dVertex
 10
139.73514
 20
29.210276
 30
0.0
  0
VERTEX
  5
13F
100
AcDbEntity
  8
T80SSILL
 62
     7
100
AcDbVertex
100
AcDb2dVertex
 10
139.578044
 20
29.468658
 30
0.0
  0
VERTEX
  5
140
100
AcDbEntity
  8
T80SSILL
 62
     7
100
AcDbVertex
100
AcDb2dVertex
 10
139.51052
 20
29.677086
 30
0.0
  0
VERTEX
  5
141
100
AcDbEntity
  8
T80SSILL
 62
     7
100
AcDbVertex
100
AcDb2dVertex
 10
139.379262
 20
29.981288
 30
0.0
  0
VERTEX
  5
142
100
AcDbEntity
  8
T80SSILL
 62
     7
100
AcDbVertex
100
AcDb2dVertex
 10
139.32414
 20
30.082574
 30
0.0
  0
VERTEX
  5
143
100
AcDbEntity
  8
T80SSILL
 62
     7
100
AcDbVertex
100
AcDb2dVertex
 10
139.169111
 20
30.06397
 30
0.0
  0
VERTEX
  5
144
100
AcDbEntity
  8
T80SSILL
 62
     7
100
AcDbVertex
100
AcDb2dVertex
 10
139.056801
 20
30.294792
 30
0.0
  0
VERTEX
  5
145
100
AcDbEntity
  8
T80SSILL
 62
     7
100
AcDbVertex
100
AcDb2dVertex
 10
139.136727
 20
30.901128
 30
0.0
  0
VERTEX
  5
146
100
AcDbEntity
  8
T80SSILL
 62
     7
100
AcDbVertex
100
AcDb2dVertex
 10
139.194949
 20
31.252873
 30
0.0
  0
VERTEX
  5
147
100
AcDbEntity
  8
T80SSILL
 62
     7
100
AcDbVertex
100
AcDb2dVertex
 10
139.240769
 20
31.549151
 30
0.0
  0
VERTEX
  5
148
100
AcDbEntity
  8
T80SSILL
 62
     7
100
AcDbVertex
100
AcDb2dVertex
 10
139.239735
 20
31.846807
 30
0.0
  0
VERTEX
  5
149
100
AcDbEntity
  8
T80SSILL
 62
     7
100
AcDbVertex
100
AcDb2dVertex
 10
138.388108
 20
35.994358
 30
0.0
  0
VERTEX
  5
14A
100
AcDbEntity
  8
T80SSILL
 62
     7
100
AcDbVertex
100
AcDb2dVertex
 10
138.205862
 20
36.422583
 30
0.0
  0
VERTEX
  5
14B
100
AcDbEntity
  8
T80SSILL
 62
     7
100
AcDbVertex
100
AcDb2dVertex
 10
138.213097
 20
36.670974
 30
0.0
  0
VERTEX
  5
14C
100
AcDbEntity
  8
T80SSILL
 62
     7
100
AcDbVertex
100
AcDb2dVertex
 10
137.640866
 20
38.289136
 30
0.0
  0
VERTEX
  5
14D
100
AcDbEntity
  8
T80SSILL
 62
     7
100
AcDbVertex
100
AcDb2dVertex
 10
137.483081
 20
38.414537
 30
0.0
  0
VERTEX
  5
14E
100
AcDbEntity
  8
T80SSILL
 62
     7
100
AcDbVertex
100
AcDb2dVertex
 10
137.480325
 20
38.477238
 30
0.0
  0
VERTEX
  5
14F
100
AcDbEntity
  8
T80SSILL
 62
     7
100
AcDbVertex
100
AcDb2dVertex
 10
137.543715
 20
38.586447
 30
0.0
  0
VERTEX
  5
150
100
AcDbEntity
  8
T80SSILL
 62
     7
100
AcDbVertex
100
AcDb2dVertex
 10
136.914985
 20
40.379275
 30
0.0
  0
VERTEX
  5
151
100
AcDbEntity
  8
T80SSILL
 62
     7
100
AcDbVertex
100
AcDb2dVertex
 10
136.762712
 20
40.450589
 30
0.0
  0
VERTEX
  5
152
100
AcDbEntity
  8
T80SSILL
 62
     7
100
AcDbVertex
100
AcDb2dVertex
 10
136.743419
 20
40.501232
 30
0.0
  0
VERTEX
  5
153
100
AcDbEntity
  8
T80SSILL
 62
     7
100
AcDbVertex
100
AcDb2dVertex
 10
136.835748
 20
40.614231
 30
0.0
  0
VERTEX
  5
154
100
AcDbEntity
  8
T80SSILL
 62
     7
100
AcDbVertex
100
AcDb2dVertex
 10
136.353779
 20
42.034988
 30
0.0
  0
VERTEX
  5
155
100
AcDbEntity
  8
T80SSILL
 62
     7
100
AcDbVertex
100
AcDb2dVertex
 10
136.239057
 20
42.257197
 30
0.0
  0
VERTEX
  5
156
100
AcDbEntity
  8
T80SSILL
 62
     7
100
AcDbVertex
100
AcDb2dVertex
 10
136.210463
 20
42.370196
 30
0.0
  0
VERTEX
  5
157
100
AcDbEntity
  8
T80SSILL
 62
     7
100
AcDbVertex
100
AcDb2dVertex
 10
136.130537
 20
42.414638
 30
0.0
  0
VERTEX
  5
158
100
AcDbEntity
  8
T80SSILL
 62
     7
100
AcDbVertex
100
AcDb2dVertex
 10
136.124335
 20
42.471137
 30
0.0
  0
VERTEX
  5
159
100
AcDbEntity
  8
T80SSILL
 62
     7
100
AcDbVertex
100
AcDb2dVertex
 10
136.178768
 20
42.541762
 30
0.0
  0
VERTEX
  5
15A
100
AcDbEntity
  8
T80SSILL
 62
     7
100
AcDbVertex
100
AcDb2dVertex
 10
135.549004
 20
44.36594
 30
0.0
  0
VERTEX
  5
15B
100
AcDbEntity
  8
T80SSILL
 62
     7
100
AcDbVertex
100
AcDb2dVertex
 10
135.469078
 20
44.397979
 30
0.0
  0
VERTEX
  5
15C
100
AcDbEntity
  8
T80SSILL
 62
     7
100
AcDbVertex
100
AcDb2dVertex
 10
135.441517
 20
44.440698
 30
0.0
  0
VERTEX
  5
15D
100
AcDbEntity
  8
T80SSILL
 62
     7
100
AcDbVertex
100
AcDb2dVertex
 10
135.418435
 20
44.561277
 30
0.0
  0
VERTEX
  5
15E
100
AcDbEntity
  8
T80SSILL
 62
     7
100
AcDbVertex
100
AcDb2dVertex
 10
135.467011
 20
44.6288
 30
0.0
  0
VERTEX
  5
15F
100
AcDbEntity
  8
T80SSILL
 62
     7
100
AcDbVertex
100
AcDb2dVertex
 10
134.103098
 20
48.591349
 30
0.0
  0
VERTEX
  5
160
100
AcDbEntity
  8
T80SSILL
 62
     7
100
AcDbVertex
100
AcDb2dVertex
 10
133.953925
 20
48.632346
 30
0.0
  0
VERTEX
  5
161
100
AcDbEntity
  8
T80SSILL
 62
     7
100
AcDbVertex
100
AcDb2dVertex
 10
133.951169
 20
48.672309
 30
0.0
  0
VERTEX
  5
162
100
AcDbEntity
  8
T80SSILL
 62
     7
100
AcDbVertex
100
AcDb2dVertex
 10
134.01008
 20
48.788064
 30
0.0
  0
VERTEX
  5
163
100
AcDbEntity
  8
T80SSILL
 62
     7
100
AcDbVertex
100
AcDb2dVertex
 10
133.19187
 20
51.114537
 30
0.0
  0
VERTEX
  5
164
100
AcDbEntity
  8
T80SSILL
 62
     7
100
AcDbVertex
100
AcDb2dVertex
 10
133.105398
 20
51.067339
 30
0.0
  0
VERTEX
  5
165
100
AcDbEntity
  8
T80SSILL
 62
     7
100
AcDbVertex
100
AcDb2dVertex
 10
133.015481
 20
50.750735
 30
0.0
  0
VERTEX
  5
166
100
AcDbEntity
  8
T80SSILL
 62
     7
100
AcDbVertex
100
AcDb2dVertex
 10
133.054411
 20
50.599151
 30
0.0
  0
VERTEX
  5
167
100
AcDbEntity
  8
T80SSILL
 62
     7
100
AcDbVertex
100
AcDb2dVertex
 10
133.054755
 20
50.486496
 30
0.0
  0
VERTEX
  5
168
100
AcDbEntity
  8
T80SSILL
 62
     7
100
AcDbVertex
100
AcDb2dVertex
 10
132.854595
 20
50.233626
 30
0.0
  0
VERTEX
  5
169
100
AcDbEntity
  8
T80SSILL
 62
     7
100
AcDbVertex
100
AcDb2dVertex
 10
132.788105
 20
50.17506
 30
0.0
  0
VERTEX
  5
16A
100
AcDbEntity
  8
T80SSILL
 62
     7
100
AcDbVertex
100
AcDb2dVertex
 10
132.547982
 20
50.227081
 30
0.0
  0
VERTEX
  5
16B
100
AcDbEntity
  8
T80SSILL
 62
     7
100
AcDbVertex
100
AcDb2dVertex
 10
132.48597
 20
50.258775
 30
0.0
  0
VERTEX
  5
16C
100
AcDbEntity
  8
T80SSILL
 62
     7
100
AcDbVertex
100
AcDb2dVertex
 10
132.481491
 20
50.314242
 30
0.0
  0
VERTEX
  5
16D
100
AcDbEntity
  8
T80SSILL
 62
     7
100
AcDbVertex
100
AcDb2dVertex
 10
132.416035
 20
50.419317
 30
0.0
  0
VERTEX
  5
16E
100
AcDbEntity
  8
T80SSILL
 62
     7
100
AcDbVertex
100
AcDb2dVertex
 10
132.405699
 20
50.45928
 30
0.0
  0
VERTEX
  5
16F
100
AcDbEntity
  8
T80SSILL
 62
     7
100
AcDbVertex
100
AcDb2dVertex
 10
132.542125
 20
50.607075
 30
0.0
  0
VERTEX
  5
170
100
AcDbEntity
  8
T80SSILL
 62
     7
100
AcDbVertex
100
AcDb2dVertex
 10
132.622051
 20
50.849609
 30
0.0
  0
VERTEX
  5
171
100
AcDbEntity
  8
T80SSILL
 62
     7
100
AcDbVertex
100
AcDb2dVertex
 10
132.763645
 20
50.853399
 30
0.0
  0
VERTEX
  5
172
100
AcDbEntity
  8
T80SSILL
 62
     7
100
AcDbVertex
100
AcDb2dVertex
 10
132.81291
 20
50.906453
 30
0.0
  0
VERTEX
  5
173
100
AcDbEntity
  8
T80SSILL
 62
     7
100
AcDbVertex
100
AcDb2dVertex
 10
132.883534
 20
51.089044
 30
0.0
  0
VERTEX
  5
174
100
AcDbEntity
  8
T80SSILL
 62
     7
100
AcDbVertex
100
AcDb2dVertex
 10
132.988265
 20
51.528638
 30
0.0
  0
VERTEX
  5
175
100
AcDbEntity
  8
T80SSILL
 62
     7
100
AcDbVertex
100
AcDb2dVertex
 10
132.898692
 20
52.017152
 30
0.0
  0
VERTEX
  5
176
100
AcDbEntity
  8
T80SSILL
 62
     7
100
AcDbVertex
100
AcDb2dVertex
 10
132.666149
 20
52.707205
 30
0.0
  0
VERTEX
  5
177
100
AcDbEntity
  8
T80SSILL
 62
     7
100
AcDbVertex
100
AcDb2dVertex
 10
132.513531
 20
52.77404
 30
0.0
  0
VERTEX
  5
178
100
AcDbEntity
  8
T80SSILL
 62
     7
100
AcDbVertex
100
AcDb2dVertex
 10
132.575543
 20
52.945605
 30
0.0
  0
VERTEX
  5
179
100
AcDbEntity
  8
T80SSILL
 62
     7
100
AcDbVertex
100
AcDb2dVertex
 10
131.940611
 20
54.783564
 30
0.0
  0
VERTEX
  5
17A
100
AcDbEntity
  8
T80SSILL
 62
     7
100
AcDbVertex
100
AcDb2dVertex
 10
131.838981
 20
54.800789
 30
0.0
  0
VERTEX
  5
17B
100
AcDbEntity
  8
T80SSILL
 62
     7
100
AcDbVertex
100
AcDb2dVertex
 10
131.823134
 20
54.847298
 30
0.0
  0
VERTEX
  5
17C
100
AcDbEntity
  8
T80SSILL
 62
     7
100
AcDbVertex
100
AcDb2dVertex
 10
131.876533
 20
54.984068
 30
0.0
  0
VERTEX
  5
17D
100
AcDbEntity
  8
T80SSILL
 62
     7
100
AcDbVertex
100
AcDb2dVertex
 10
131.232644
 20
56.853722
 30
0.0
  0
VERTEX
  5
17E
100
AcDbEntity
  8
T80SSILL
 62
     7
100
AcDbVertex
100
AcDb2dVertex
 10
131.152374
 20
56.860612
 30
0.0
  0
VERTEX
  5
17F
100
AcDbEntity
  8
T80SSILL
 62
     7
100
AcDbVertex
100
AcDb2dVertex
 10
131.117923
 20
56.910221
 30
0.0
  0
VERTEX
  5
180
100
AcDbEntity
  8
T80SSILL
 62
     7
100
AcDbVertex
100
AcDb2dVertex
 10
131.182346
 20
57.053537
 30
0.0
  0
VERTEX
  5
181
100
AcDbEntity
  8
T80SSILL
 62
     7
100
AcDbVertex
100
AcDb2dVertex
 10
130.642499
 20
58.618644
 30
0.0
  0
VERTEX
  5
182
100
AcDbEntity
  8
T80SSILL
 62
     7
100
AcDbVertex
100
AcDb2dVertex
 10
130.46301
 20
58.750936
 30
0.0
  0
VERTEX
  5
183
100
AcDbEntity
  8
T80SSILL
 62
     7
100
AcDbVertex
100
AcDb2dVertex
 10
130.272152
 20
58.940416
 30
0.0
  0
VERTEX
  5
184
100
AcDbEntity
  8
T80SSILL
 62
     7
100
AcDbVertex
100
AcDb2dVertex
 10
130.313493
 20
59.126451
 30
0.0
  0
VERTEX
  5
185
100
AcDbEntity
  8
T80SSILL
 62
     7
100
AcDbVertex
100
AcDb2dVertex
 10
130.380328
 20
59.385867
 30
0.0
  0
VERTEX
  5
186
100
AcDbEntity
  8
T80SSILL
 62
     7
100
AcDbVertex
100
AcDb2dVertex
 10
130.109199
 20
60.169971
 30
0.0
  0
VERTEX
  5
187
100
AcDbEntity
  8
T80SSILL
 62
     7
100
AcDbVertex
100
AcDb2dVertex
 10
129.984486
 20
60.243696
 30
0.0
  0
VERTEX
  5
188
100
AcDbEntity
  8
T80SSILL
 62
     7
100
AcDbVertex
100
AcDb2dVertex
 10
129.898359
 20
59.998749
 30
0.0
  0
VERTEX
  5
189
100
AcDbEntity
  8
T80SSILL
 62
     7
100
AcDbVertex
100
AcDb2dVertex
 10
129.66237
 20
59.631847
 30
0.0
  0
VERTEX
  5
18A
100
AcDbEntity
  8
T80SSILL
 62
     7
100
AcDbVertex
100
AcDb2dVertex
 10
129.100819
 20
59.162625
 30
0.0
  0
VERTEX
  5
18B
100
AcDbEntity
  8
T80SSILL
 62
     7
100
AcDbVertex
100
AcDb2dVertex
 10
128.8824
 20
59.005184
 30
0.0
  0
VERTEX
  5
18C
100
AcDbEntity
  8
T80SSILL
 62
     7
100
AcDbVertex
100
AcDb2dVertex
 10
128.761133
 20
59.177094
 30
0.0
  0
VERTEX
  5
18D
100
AcDbEntity
  8
T80SSILL
 62
     7
100
AcDbVertex
100
AcDb2dVertex
 10
129.262394
 20
59.519192
 30
0.0
  0
VERTEX
  5
18E
100
AcDbEntity
  8
T80SSILL
 62
     7
100
AcDbVertex
100
AcDb2dVertex
 10
129.505618
 20
59.764138
 30
0.0
  0
VERTEX
  5
18F
100
AcDbEntity
  8
T80SSILL
 62
     7
100
AcDbVertex
100
AcDb2dVertex
 10
129.674428
 20
60.007362
 30
0.0
  0
VERTEX
  5
190
100
AcDbEntity
  8
T80SSILL
 62
     7
100
AcDbVertex
100
AcDb2dVertex
 10
129.785704
 20
60.282625
 30
0.0
  0
VERTEX
  5
191
100
AcDbEntity
  8
T80SSILL
 62
     7
100
AcDbVertex
100
AcDb2dVertex
 10
129.839103
 20
60.53584
 30
0.0
  0
VERTEX
  5
192
100
AcDbEntity
  8
T80SSILL
 62
     7
100
AcDbVertex
100
AcDb2dVertex
 10
129.840826
 20
60.671577
 30
0.0
  0
VERTEX
  5
193
100
AcDbEntity
  8
T80SSILL
 62
     7
100
AcDbVertex
100
AcDb2dVertex
 10
129.708534
 20
61.065007
 30
0.0
  0
VERTEX
  5
194
100
AcDbEntity
  8
T80SSILL
 62
     7
100
AcDbVertex
100
AcDb2dVertex
 10
129.758488
 20
61.174905
 30
0.0
  0
VERTEX
  5
195
100
AcDbEntity
  8
T80SSILL
 62
     7
100
AcDbVertex
100
AcDb2dVertex
 10
129.140093
 20
63.000806
 30
0.0
  0
VERTEX
  5
196
100
AcDbEntity
  8
T80SSILL
 62
     7
100
AcDbVertex
100
AcDb2dVertex
 10
129.048454
 20
62.984958
 30
0.0
  0
VERTEX
  5
197
100
AcDbEntity
  8
T80SSILL
 62
     7
100
AcDbVertex
100
AcDb2dVertex
 10
128.972662
 20
63.079354
 30
0.0
  0
VERTEX
  5
198
100
AcDbEntity
  8
T80SSILL
 62
     7
100
AcDbVertex
100
AcDb2dVertex
 10
129.07188
 20
63.209923
 30
0.0
  0
VERTEX
  5
199
100
AcDbEntity
  8
T80SSILL
 62
     7
100
AcDbVertex
100
AcDb2dVertex
 10
128.259182
 20
65.535018
 30
0.0
  0
VERTEX
  5
19A
100
AcDbEntity
  8
T80SSILL
 62
     7
100
AcDbVertex
100
AcDb2dVertex
 10
128.185457
 20
65.538808
 30
0.0
  0
VERTEX
  5
19B
100
AcDbEntity
  8
T80SSILL
 62
     7
100
AcDbVertex
100
AcDb2dVertex
 10
128.097952
 20
65.651118
 30
0.0
  0
VERTEX
  5
19C
100
AcDbEntity
  8
T80SSILL
 62
     7
100
AcDbVertex
100
AcDb2dVertex
 10
128.192348
 20
65.767906
 30
0.0
  0
VERTEX
  5
19D
100
AcDbEntity
  8
T80SSILL
 62
     7
100
AcDbVertex
100
AcDb2dVertex
 10
127.89538
 20
66.638137
 30
0.0
  0
VERTEX
  5
19E
100
AcDbEntity
  8
T80SSILL
 62
     7
100
AcDbVertex
100
AcDb2dVertex
 10
127.796506
 20
66.66811
 30
0.0
  0
VERTEX
  5
19F
100
AcDbEntity
  8
T80SSILL
 62
     7
100
AcDbVertex
100
AcDb2dVertex
 10
127.720025
 20
66.679479
 30
0.0
  0
VERTEX
  5
1A0
100
AcDbEntity
  8
T80SSILL
 62
     7
100
AcDbVertex
100
AcDb2dVertex
 10
127.712101
 20
66.676723
 30
0.0
  0
VERTEX
  5
1A1
100
AcDbEntity
  8
T80SSILL
 62
     7
100
AcDbVertex
100
AcDb2dVertex
 10
127.707278
 20
66.675345
 30
0.0
  0
VERTEX
  5
1A2
100
AcDbEntity
  8
T80SSILL
 62
     7
100
AcDbVertex
100
AcDb2dVertex
 10
127.65698
 20
66.599552
 30
0.0
  0
VERTEX
  5
1A3
100
AcDbEntity
  8
T80SSILL
 62
     7
100
AcDbVertex
100
AcDb2dVertex
 10
127.613572
 20
66.301207
 30
0.0
  0
VERTEX
  5
1A4
100
AcDbEntity
  8
T80SSILL
 62
     7
100
AcDbVertex
100
AcDb2dVertex
 10
127.580154
 20
66.130675
 30
0.0
  0
VERTEX
  5
1A5
100
AcDbEntity
  8
T80SSILL
 62
     7
100
AcDbVertex
100
AcDb2dVertex
 10
127.554316
 20
66.126885
 30
0.0
  0
VERTEX
  5
1A6
100
AcDbEntity
  8
T80SSILL
 62
     7
100
AcDbVertex
100
AcDb2dVertex
 10
127.53399
 20
66.123785
 30
0.0
  0
VERTEX
  5
1A7
100
AcDbEntity
  8
T80SSILL
 62
     7
100
AcDbVertex
100
AcDb2dVertex
 10
127.492304
 20
66.06384
 30
0.0
  0
VERTEX
  5
1A8
100
AcDbEntity
  8
T80SSILL
 62
     7
100
AcDbVertex
100
AcDb2dVertex
 10
127.459576
 20
65.989771
 30
0.0
  0
VERTEX
  5
1A9
100
AcDbEntity
  8
T80SSILL
 62
     7
100
AcDbVertex
100
AcDb2dVertex
 10
127.461643
 20
65.952563
 30
0.0
  0
VERTEX
  5
1AA
100
AcDbEntity
  8
T80SSILL
 62
     7
100
AcDbVertex
100
AcDb2dVertex
 10
127.670416
 20
65.745858
 30
0.0
  0
VERTEX
  5
1AB
100
AcDbEntity
  8
T80SSILL
 62
     7
100
AcDbVertex
100
AcDb2dVertex
 10
127.661114
 20
65.607365
 30
0.0
  0
VERTEX
  5
1AC
100
AcDbEntity
  8
T80SSILL
 62
     7
100
AcDbVertex
100
AcDb2dVertex
 10
127.353467
 20
65.64216
 30
0.0
  0
VERTEX
  5
1AD
100
AcDbEntity
  8
T80SSILL
 62
     7
100
AcDbVertex
100
AcDb2dVertex
 10
127.313159
 20
65.595996
 30
0.0
  0
VERTEX
  5
1AE
100
AcDbEntity
  8
T80SSILL
 62
     7
100
AcDbVertex
100
AcDb2dVertex
 10
127.304546
 20
65.574981
 30
0.0
  0
VERTEX
  5
1AF
100
AcDbEntity
  8
T80SSILL
 62
     7
100
AcDbVertex
100
AcDb2dVertex
 10
127.234956
 20
65.433732
 30
0.0
  0
VERTEX
  5
1B0
100
AcDbEntity
  8
T80SSILL
 62
     7
100
AcDbVertex
100
AcDb2dVertex
 10
127.153307
 20
65.170871
 30
0.0
  0
VERTEX
  5
1B1
100
AcDbEntity
  8
T80SSILL
 62
     7
100
AcDbVertex
100
AcDb2dVertex
 10
127.140904
 20
64.954864
 30
0.0
  0
VERTEX
  5
1B2
100
AcDbEntity
  8
T80SSILL
 62
     7
100
AcDbVertex
100
AcDb2dVertex
 10
127.057533
 20
64.876316
 30
0.0
  0
VERTEX
  5
1B3
100
AcDbEntity
  8
T80SSILL
 62
     7
100
AcDbVertex
100
AcDb2dVertex
 10
127.00689
 20
64.730588
 30
0.0
  0
VERTEX
  5
1B4
100
AcDbEntity
  8
T80SSILL
 62
     7
100
AcDbVertex
100
AcDb2dVertex
 10
126.929031
 20
64.613799
 30
0.0
  0
VERTEX
  5
1B5
100
AcDbEntity
  8
T80SSILL
 62
     7
100
AcDbVertex
100
AcDb2dVertex
 10
126.856684
 20
64.427075
 30
0.0
  0
VERTEX
  5
1B6
100
AcDbEntity
  8
T80SSILL
 62
     7
100
AcDbVertex
100
AcDb2dVertex
 10
126.721636
 20
64.041225
 30
0.0
  0
VERTEX
  5
1B7
100
AcDbEntity
  8
T80SSILL
 62
     7
100
AcDbVertex
100
AcDb2dVertex
 10
126.581421
 20
63.758382
 30
0.0
  0
VERTEX
  5
1B8
100
AcDbEntity
  8
T80SSILL
 62
     7
100
AcDbVertex
100
AcDb2dVertex
 10
126.37127
 20
63.843821
 30
0.0
  0
VERTEX
  5
1B9
100
AcDbEntity
  8
T80SSILL
 62
     7
100
AcDbVertex
100
AcDb2dVertex
 10
126.474623
 20
64.134587
 30
0.0
  0
VERTEX
  5
1BA
100
AcDbEntity
  8
T80SSILL
 62
     7
100
AcDbVertex
100
AcDb2dVertex
 10
126.476001
 20
64.139065
 30
0.0
  0
VERTEX
  5
1BB
100
AcDbEntity
  8
T80SSILL
 62
     7
100
AcDbVertex
100
AcDb2dVertex
 10
126.760221
 20
64.724387
 30
0.0
  0
VERTEX
  5
1BC
100
AcDbEntity
  8
T80SSILL
 62
     7
100
AcDbVertex
100
AcDb2dVertex
 10
126.93351
 20
65.24184
 30
0.0
  0
VERTEX
  5
1BD
100
AcDbEntity
  8
T80SSILL
 62
     7
100
AcDbVertex
100
AcDb2dVertex
 10
127.233577
 20
65.938439
 30
0.0
  0
VERTEX
  5
1BE
100
AcDbEntity
  8
T80SSILL
 62
     7
100
AcDbVertex
100
AcDb2dVertex
 10
127.32315
 20
66.208534
 30
0.0
  0
VERTEX
  5
1BF
100
AcDbEntity
  8
T80SSILL
 62
     7
100
AcDbVertex
100
AcDb2dVertex
 10
127.415479
 20
66.580949
 30
0.0
  0
VERTEX
  5
1C0
100
AcDbEntity
  8
T80SSILL
 62
     7
100
AcDbVertex
100
AcDb2dVertex
 10
127.426847
 20
66.626424
 30
0.0
  0
VERTEX
  5
1C1
100
AcDbEntity
  8
T80SSILL
 62
     7
100
AcDbVertex
100
AcDb2dVertex
 10
127.415479
 20
66.739079
 30
0.0
  0
VERTEX
  5
1C2
100
AcDbEntity
  8
T80SSILL
 62
     7
100
AcDbVertex
100
AcDb2dVertex
 10
127.415134
 20
66.741146
 30
0.0
  0
VERTEX
  5
1C3
100
AcDbEntity
  8
T80SSILL
 62
     7
100
AcDbVertex
100
AcDb2dVertex
 10
127.607715
 20
67.01572
 30
0.0
  0
VERTEX
  5
1C4
100
AcDbEntity
  8
T80SSILL
 62
     7
100
AcDbVertex
100
AcDb2dVertex
 10
127.65698
 20
67.321989
 30
0.0
  0
VERTEX
  5
1C5
100
AcDbEntity
  8
T80SSILL
 62
     7
100
AcDbVertex
100
AcDb2dVertex
 10
127.120923
 20
68.83473
 30
0.0
  0
VERTEX
  5
1C6
100
AcDbEntity
  8
T80SSILL
 62
     7
100
AcDbVertex
100
AcDb2dVertex
 10
126.924552
 20
68.890885
 30
0.0
  0
VERTEX
  5
1C7
100
AcDbEntity
  8
T80SSILL
 62
     7
100
AcDbVertex
100
AcDb2dVertex
 10
126.712679
 20
69.490677
 30
0.0
  0
VERTEX
  5
1C8
100
AcDbEntity
  8
T80SSILL
 62
     7
100
AcDbVertex
100
AcDb2dVertex
 10
126.799495
 20
69.76594
 30
0.0
  0
VERTEX
  5
1C9
100
AcDbEntity
  8
T80SSILL
 62
     7
100
AcDbVertex
100
AcDb2dVertex
 10
126.77538
 20
69.914768
 30
0.0
  0
VERTEX
  5
1CA
100
AcDbEntity
  8
T80SSILL
 62
     7
100
AcDbVertex
100
AcDb2dVertex
 10
126.304435
 20
71.256977
 30
0.0
  0
VERTEX
  5
1CB
100
AcDbEntity
  8
T80SSILL
 62
     7
100
AcDbVertex
100
AcDb2dVertex
 10
126.249314
 20
71.22356
 30
0.0
  0
VERTEX
  5
1CC
100
AcDbEntity
  8
T80SSILL
 62
     7
100
AcDbVertex
100
AcDb2dVertex
 10
126.163531
 20
71.346894
 30
0.0
  0
VERTEX
  5
1CD
100
AcDbEntity
  8
T80SSILL
 62
     7
100
AcDbVertex
100
AcDb2dVertex
 10
126.248969
 20
71.409939
 30
0.0
  0
VERTEX
  5
1CE
100
AcDbEntity
  8
T80SSILL
 62
     7
100
AcDbVertex
100
AcDb2dVertex
 10
125.925475
 20
72.334603
 30
0.0
  0
VERTEX
  5
1CF
100
AcDbEntity
  8
T80SSILL
 62
     7
100
AcDbVertex
100
AcDb2dVertex
 10
125.65848
 20
72.546476
 30
0.0
  0
VERTEX
  5
1D0
100
AcDbEntity
  8
T80SSILL
 62
     7
100
AcDbVertex
100
AcDb2dVertex
 10
125.657102
 20
72.908211
 30
0.0
  0
VERTEX
  5
1D1
100
AcDbEntity
  8
T80SSILL
 62
     7
100
AcDbVertex
100
AcDb2dVertex
 10
125.698787
 20
73.158325
 30
0.0
  0
VERTEX
  5
1D2
100
AcDbEntity
  8
T80SSILL
 62
     7
100
AcDbVertex
100
AcDb2dVertex
 10
125.598191
 20
79.350195
 30
0.0
  0
VERTEX
  5
1D3
100
AcDbEntity
  8
T80SSILL
 62
     7
100
AcDbVertex
100
AcDb2dVertex
 10
125.523088
 20
83.95491
 30
0.0
  0
VERTEX
  5
1D4
100
AcDbEntity
  8
T80SSILL
 62
     7
100
AcDbVertex
100
AcDb2dVertex
 10
124.8227
 20
84.123375
 30
0.0
  0
VERTEX
  5
1D5
100
AcDbEntity
  8
T80SSILL
 62
     7
100
AcDbVertex
100
AcDb2dVertex
 10
124.860251
 20
84.332492
 30
0.0
  0
VERTEX
  5
1D6
100
AcDbEntity
  8
T80SSILL
 62
     7
100
AcDbVertex
100
AcDb2dVertex
 10
125.052143
 20
84.280471
 30
0.0
  0
VERTEX
  5
1D7
100
AcDbEntity
  8
T80SSILL
 62
     7
100
AcDbVertex
100
AcDb2dVertex
 10
125.160664
 20
84.391748
 30
0.0
  0
VERTEX
  5
1D8
100
AcDbEntity
  8
T80SSILL
 62
     7
100
AcDbVertex
100
AcDb2dVertex
 10
125.309147
 20
84.340416
 30
0.0
  0
VERTEX
  5
1D9
100
AcDbEntity
  8
T80SSILL
 62
     7
100
AcDbVertex
100
AcDb2dVertex
 10
125.339119
 20
84.209847
 30
0.0
  0
VERTEX
  5
1DA
100
AcDbEntity
  8
T80SSILL
 62
     7
100
AcDbVertex
100
AcDb2dVertex
 10
125.411122
 20
84.204679
 30
0.0
  0
VERTEX
  5
1DB
100
AcDbEntity
  8
T80SSILL
 62
     7
100
AcDbVertex
100
AcDb2dVertex
 10
125.5286
 20
84.240508
 30
0.0
  0
VERTEX
  5
1DC
100
AcDbEntity
  8
T80SSILL
 62
     7
100
AcDbVertex
100
AcDb2dVertex
 10
125.502072
 20
85.540343
 30
0.0
  0
VERTEX
  5
1DD
100
AcDbEntity
  8
T80SSILL
 62
     7
100
AcDbVertex
100
AcDb2dVertex
 10
125.09624
 20
85.720866
 30
0.0
  0
VERTEX
  5
1DE
100
AcDbEntity
  8
T80SSILL
 62
     7
100
AcDbVertex
100
AcDb2dVertex
 10
125.07867
 20
85.804926
 30
0.0
  0
VERTEX
  5
1DF
100
AcDbEntity
  8
T80SSILL
 62
     7
100
AcDbVertex
100
AcDb2dVertex
 10
125.510685
 20
85.976836
 30
0.0
  0
VERTEX
  5
1E0
100
AcDbEntity
  8
T80SSILL
 62
     7
100
AcDbVertex
100
AcDb2dVertex
 10
125.474512
 20
88.636106
 30
0.0
  0
VERTEX
  5
1E1
100
AcDbEntity
  8
T80SSILL
 62
     7
100
AcDbVertex
100
AcDb2dVertex
 10
125.403198
 20
88.940997
 30
0.0
  0
VERTEX
  5
1E2
100
AcDbEntity
  8
T80SSILL
 62
     7
100
AcDbVertex
100
AcDb2dVertex
 10
125.393896
 20
89.087758
 30
0.0
  0
VERTEX
  5
1E3
100
AcDbEntity
  8
T80SSILL
 62
     7
100
AcDbVertex
100
AcDb2dVertex
 10
125.527911
 20
89.283439
 30
0.0
  0
VERTEX
  5
1E4
100
AcDbEntity
  8
T80SSILL
 62
     7
100
AcDbVertex
100
AcDb2dVertex
 10
125.791461
 20
89.826042
 30
0.0
  0
VERTEX
  5
1E5
100
AcDbEntity
  8
T80SSILL
 62
     7
100
AcDbVertex
100
AcDb2dVertex
 10
125.692242
 20
89.852569
 30
0.0
  0
VERTEX
  5
1E6
100
AcDbEntity
  8
T80SSILL
 62
     7
100
AcDbVertex
100
AcDb2dVertex
 10
125.420079
 20
89.739914
 30
0.0
  0
VERTEX
  5
1E7
100
AcDbEntity
  8
T80SSILL
 62
     7
100
AcDbVertex
100
AcDb2dVertex
 10
125.202005
 20
90.023101
 30
0.0
  0
VERTEX
  5
1E8
100
AcDbEntity
  8
T80SSILL
 62
     7
100
AcDbVertex
100
AcDb2dVertex
 10
125.798695
 20
90.3683
 30
0.0
  0
VERTEX
  5
1E9
100
AcDbEntity
  8
T80SSILL
 62
     7
100
AcDbVertex
100
AcDb2dVertex
 10
126.164909
 20
90.620136
 30
0.0
  0
VERTEX
  5
1EA
100
AcDbEntity
  8
T80SSILL
 62
     7
100
AcDbVertex
100
AcDb2dVertex
 10
126.217963
 20
90.83511
 30
0.0
  0
VERTEX
  5
1EB
100
AcDbEntity
  8
T80SSILL
 62
     7
100
AcDbVertex
100
AcDb2dVertex
 10
126.347843
 20
91.130699
 30
0.0
  0
VERTEX
  5
1EC
100
AcDbEntity
  8
T80SSILL
 62
     7
100
AcDbVertex
100
AcDb2dVertex
 10
126.405721
 20
91.384947
 30
0.0
  0
VERTEX
  5
1ED
100
AcDbEntity
  8
T80SSILL
 62
     7
100
AcDbVertex
100
AcDb2dVertex
 10
126.387462
 20
91.830743
 30
0.0
  0
VERTEX
  5
1EE
100
AcDbEntity
  8
T80SSILL
 62
     7
100
AcDbVertex
100
AcDb2dVertex
 10
126.296167
 20
91.767008
 30
0.0
  0
VERTEX
  5
1EF
100
AcDbEntity
  8
T80SSILL
 62
     7
100
AcDbVertex
100
AcDb2dVertex
 10
126.21314
 20
91.88552
 30
0.0
  0
VERTEX
  5
1F0
100
AcDbEntity
  8
T80SSILL
 62
     7
100
AcDbVertex
100
AcDb2dVertex
 10
126.386428
 20
92.014366
 30
0.0
  0
VERTEX
  5
1F1
100
AcDbEntity
  8
T80SSILL
 62
     7
100
AcDbVertex
100
AcDb2dVertex
 10
126.350255
 20
94.368745
 30
0.0
  0
VERTEX
  5
1F2
100
AcDbEntity
  8
T80SSILL
 62
     7
100
AcDbVertex
100
AcDb2dVertex
 10
126.228988
 20
94.299843
 30
0.0
  0
VERTEX
  5
1F3
100
AcDbEntity
  8
T80SSILL
 62
     7
100
AcDbVertex
100
AcDb2dVertex
 10
126.158708
 20
94.420766
 30
0.0
  0
VERTEX
  5
1F4
100
AcDbEntity
  8
T80SSILL
 62
     7
100
AcDbVertex
100
AcDb2dVertex
 10
126.355767
 20
94.572005
 30
0.0
  0
VERTEX
  5
1F5
100
AcDbEntity
  8
T80SSILL
 62
     7
100
AcDbVertex
100
AcDb2dVertex
 10
126.329584
 20
95.474965
 30
0.0
  0
VERTEX
  5
1F6
100
AcDbEntity
  8
T80SSILL
 62
     7
100
AcDbVertex
100
AcDb2dVertex
 10
125.934776
 20
95.561437
 30
0.0
  0
VERTEX
  5
1F7
100
AcDbEntity
  8
T80SSILL
 62
     7
100
AcDbVertex
100
AcDb2dVertex
 10
125.31087
 20
95.559025
 30
0.0
  0
VERTEX
  5
1F8
100
AcDbEntity
  8
T80SSILL
 62
     7
100
AcDbVertex
100
AcDb2dVertex
 10
125.262638
 20
95.346463
 30
0.0
  0
VERTEX
  5
1F9
100
AcDbEntity
  8
T80SSILL
 62
     7
100
AcDbVertex
100
AcDb2dVertex
 10
125.089695
 20
95.344396
 30
0.0
  0
VERTEX
  5
1FA
100
AcDbEntity
  8
T80SSILL
 62
     7
100
AcDbVertex
100
AcDb2dVertex
 10
125.046631
 20
95.546623
 30
0.0
  0
VERTEX
  5
1FB
100
AcDbEntity
  8
T80SSILL
 62
     7
100
AcDbVertex
100
AcDb2dVertex
 10
123.93731
 20
95.536632
 30
0.0
  0
VERTEX
  5
1FC
100
AcDbEntity
  8
T80SSILL
 62
     7
100
AcDbVertex
100
AcDb2dVertex
 10
123.705111
 20
95.591409
 30
0.0
  0
VERTEX
  5
1FD
100
AcDbEntity
  8
T80SSILL
 62
     7
100
AcDbVertex
100
AcDb2dVertex
 10
123.417445
 20
95.766075
 30
0.0
  0
VERTEX
  5
1FE
100
AcDbEntity
  8
T80SSILL
 62
     7
100
AcDbVertex
100
AcDb2dVertex
 10
122.367036
 20
95.731969
 30
0.0
  0
VERTEX
  5
1FF
100
AcDbEntity
  8
T80SSILL
 62
     7
100
AcDbVertex
100
AcDb2dVertex
 10
122.370136
 20
95.651698
 30
0.0
  0
VERTEX
  5
200
100
AcDbEntity
  8
T80SSILL
 62
     7
100
AcDbVertex
100
AcDb2dVertex
 10
122.289521
 20
95.607601
 30
0.0
  0
VERTEX
  5
201
100
AcDbEntity
  8
T80SSILL
 62
     7
100
AcDbVertex
100
AcDb2dVertex
 10
122.211317
 20
95.484611
 30
0.0
  0
VERTEX
  5
202
100
AcDbEntity
  8
T80SSILL
 62
     7
100
AcDbVertex
100
AcDb2dVertex
 10
122.236811
 20
94.571316
 30
0.0
  0
VERTEX
  5
203
100
AcDbEntity
  8
T80SSILL
 62
     7
100
AcDbVertex
100
AcDb2dVertex
 10
122.014258
 20
94.56546
 30
0.0
  0
VERTEX
  5
204
100
AcDbEntity
  8
T80SSILL
 62
     7
100
AcDbVertex
100
AcDb2dVertex
 10
121.995999
 20
95.386081
 30
0.0
  0
VERTEX
  5
205
100
AcDbEntity
  8
T80SSILL
 62
     7
100
AcDbVertex
100
AcDb2dVertex
 10
121.875076
 20
95.522507
 30
0.0
  0
VERTEX
  5
206
100
AcDbEntity
  8
T80SSILL
 62
     7
100
AcDbVertex
100
AcDb2dVertex
 10
121.814787
 20
95.705786
 30
0.0
  0
VERTEX
  5
207
100
AcDbEntity
  8
T80SSILL
 62
     7
100
AcDbVertex
100
AcDb2dVertex
 10
121.438238
 20
95.696829
 30
0.0
  0
VERTEX
  5
208
100
AcDbEntity
  8
T80SSILL
 62
     7
100
AcDbVertex
100
AcDb2dVertex
 10
121.414811
 20
95.900434
 30
0.0
  0
VERTEX
  5
209
100
AcDbEntity
  8
T80SSILL
 62
     7
100
AcDbVertex
100
AcDb2dVertex
 10
121.818576
 20
95.912492
 30
0.0
  0
VERTEX
  5
20A
100
AcDbEntity
  8
T80SSILL
 62
     7
100
AcDbVertex
100
AcDb2dVertex
 10
121.975328
 20
96.153993
 30
0.0
  0
VERTEX
  5
20B
100
AcDbEntity
  8
T80SSILL
 62
     7
100
AcDbVertex
100
AcDb2dVertex
 10
121.954658
 20
98.986895
 30
0.0
  0
VERTEX
  5
20C
100
AcDbEntity
  8
T80SSILL
 62
     7
100
AcDbVertex
100
AcDb2dVertex
 10
121.902292
 20
100.132045
 30
0.0
  0
VERTEX
  5
20D
100
AcDbEntity
  8
T80SSILL
 62
     7
100
AcDbVertex
100
AcDb2dVertex
 10
121.965337
 20
100.471042
 30
0.0
  0
VERTEX
  5
20E
100
AcDbEntity
  8
T80SSILL
 62
     7
100
AcDbVertex
100
AcDb2dVertex
 10
122.073169
 20
100.757674
 30
0.0
  0
VERTEX
  5
20F
100
AcDbEntity
  8
T80SSILL
 62
     7
100
AcDbVertex
100
AcDb2dVertex
 10
122.241979
 20
101.050163
 30
0.0
  0
VERTEX
  5
210
100
AcDbEntity
  8
T80SSILL
 62
     7
100
AcDbVertex
100
AcDb2dVertex
 10
122.550659
 20
101.385371
 30
0.0
  0
VERTEX
  5
211
100
AcDbEntity
  8
T80SSILL
 62
     7
100
AcDbVertex
100
AcDb2dVertex
 10
122.13587
 20
101.830477
 30
0.0
  0
VERTEX
  5
212
100
AcDbEntity
  8
T80SSILL
 62
     7
100
AcDbVertex
100
AcDb2dVertex
 10
122.319493
 20
101.988951
 30
0.0
  0
VERTEX
  5
213
100
AcDbEntity
  8
T80SSILL
 62
     7
100
AcDbVertex
100
AcDb2dVertex
 10
122.625418
 20
101.652021
 30
0.0
  0
VERTEX
  5
214
100
AcDbEntity
  8
T80SSILL
 62
     7
100
AcDbVertex
100
AcDb2dVertex
 10
122.930653
 20
101.726435
 30
0.0
  0
VERTEX
  5
215
100
AcDbEntity
  8
T80SSILL
 62
     7
100
AcDbVertex
100
AcDb2dVertex
 10
125.019759
 20
103.702542
 30
0.0
  0
VERTEX
  5
216
100
AcDbEntity
  8
T80SSILL
 62
     7
100
AcDbVertex
100
AcDb2dVertex
 10
124.967049
 20
103.75284
 30
0.0
  0
VERTEX
  5
217
100
AcDbEntity
  8
T80SSILL
 62
     7
100
AcDbVertex
100
AcDb2dVertex
 10
124.918473
 20
103.877208
 30
0.0
  0
VERTEX
  5
218
100
AcDbEntity
  8
T80SSILL
 62
     7
100
AcDbVertex
100
AcDb2dVertex
 10
124.988064
 20
103.923717
 30
0.0
  0
VERTEX
  5
219
100
AcDbEntity
  8
T80SSILL
 62
     7
100
AcDbVertex
100
AcDb2dVertex
 10
124.404465
 20
105.822654
 30
0.0
  0
VERTEX
  5
21A
100
AcDbEntity
  8
T80SSILL
 62
     7
100
AcDbVertex
100
AcDb2dVertex
 10
124.274929
 20
106.117209
 30
0.0
  0
VERTEX
  5
21B
100
AcDbEntity
  8
T80SSILL
 62
     7
100
AcDbVertex
100
AcDb2dVertex
 10
124.086483
 20
106.69254
 30
0.0
  0
VERTEX
  5
21C
100
AcDbEntity
  8
T80SSILL
 62
     7
100
AcDbVertex
100
AcDb2dVertex
 10
123.771946
 20
107.901769
 30
0.0
  0
VERTEX
  5
21D
100
AcDbEntity
  8
T80SSILL
 62
     7
100
AcDbVertex
100
AcDb2dVertex
 10
123.305135
 20
107.568283
 30
0.0
  0
VERTEX
  5
21E
100
AcDbEntity
  8
T80SSILL
 62
     7
100
AcDbVertex
100
AcDb2dVertex
 10
123.281364
 20
107.471132
 30
0.0
  0
VERTEX
  5
21F
100
AcDbEntity
  8
T80SSILL
 62
     7
100
AcDbVertex
100
AcDb2dVertex
 10
123.079137
 20
107.328505
 30
0.0
  0
VERTEX
  5
220
100
AcDbEntity
  8
T80SSILL
 62
     7
100
AcDbVertex
100
AcDb2dVertex
 10
123.006445
 20
107.351931
 30
0.0
  0
VERTEX
  5
221
100
AcDbEntity
  8
T80SSILL
 62
     7
100
AcDbVertex
100
AcDb2dVertex
 10
122.234399
 20
106.797271
 30
0.0
  0
VERTEX
  5
222
100
AcDbEntity
  8
T80SSILL
 62
     7
100
AcDbVertex
100
AcDb2dVertex
 10
122.214073
 20
106.663257
 30
0.0
  0
VERTEX
  5
223
100
AcDbEntity
  8
T80SSILL
 62
     7
100
AcDbVertex
100
AcDb2dVertex
 10
122.123467
 20
106.596766
 30
0.0
  0
VERTEX
  5
224
100
AcDbEntity
  8
T80SSILL
 62
     7
100
AcDbVertex
100
AcDb2dVertex
 10
122.005301
 20
106.519941
 30
0.0
  0
VERTEX
  5
225
100
AcDbEntity
  8
T80SSILL
 62
     7
100
AcDbVertex
100
AcDb2dVertex
 10
121.871286
 20
106.552669
 30
0.0
  0
VERTEX
  5
226
100
AcDbEntity
  8
T80SSILL
 62
     7
100
AcDbVertex
100
AcDb2dVertex
 10
119.948923
 20
105.164985
 30
0.0
  0
VERTEX
  5
227
100
AcDbEntity
  8
T80SSILL
 62
     7
100
AcDbVertex
100
AcDb2dVertex
 10
119.832479
 20
105.306234
 30
0.0
  0
VERTEX
  5
228
100
AcDbEntity
  8
T80SSILL
 62
     7
100
AcDbVertex
100
AcDb2dVertex
 10
120.192147
 20
105.565305
 30
0.0
  0
VERTEX
  5
229
100
AcDbEntity
  8
T80SSILL
 62
     7
100
AcDbVertex
100
AcDb2dVertex
 10
120.108775
 20
105.726535
 30
0.0
  0
VERTEX
  5
22A
100
AcDbEntity
  8
T80SSILL
 62
     7
100
AcDbVertex
100
AcDb2dVertex
 10
120.035395
 20
105.795782
 30
0.0
  0
VERTEX
  5
22B
100
AcDbEntity
  8
T80SSILL
 62
     7
100
AcDbVertex
100
AcDb2dVertex
 10
119.923429
 20
105.858138
 30
0.0
  0
VERTEX
  5
22C
100
AcDbEntity
  8
T80SSILL
 62
     7
100
AcDbVertex
100
AcDb2dVertex
 10
119.690541
 20
105.913604
 30
0.0
  0
VERTEX
  5
22D
100
AcDbEntity
  8
T80SSILL
 62
     7
100
AcDbVertex
100
AcDb2dVertex
 10
119.688129
 20
106.01799
 30
0.0
  0
VERTEX
  5
22E
100
AcDbEntity
  8
T80SSILL
 62
     7
100
AcDbVertex
100
AcDb2dVertex
 10
119.764955
 20
106.10584
 30
0.0
  0
VERTEX
  5
22F
100
AcDbEntity
  8
T80SSILL
 62
     7
100
AcDbVertex
100
AcDb2dVertex
 10
120.030227
 20
106.273617
 30
0.0
  0
VERTEX
  5
230
100
AcDbEntity
  8
T80SSILL
 62
     7
100
AcDbVertex
100
AcDb2dVertex
 10
120.326506
 20
105.6566
 30
0.0
  0
VERTEX
  5
231
100
AcDbEntity
  8
T80SSILL
 62
     7
100
AcDbVertex
100
AcDb2dVertex
 10
121.809964
 20
106.722857
 30
0.0
  0
VERTEX
  5
232
100
AcDbEntity
  8
T80SSILL
 62
     7
100
AcDbVertex
100
AcDb2dVertex
 10
121.738306
 20
106.844813
 30
0.0
  0
VERTEX
  5
233
100
AcDbEntity
  8
T80SSILL
 62
     7
100
AcDbVertex
100
AcDb2dVertex
 10
122.027694
 20
107.055653
 30
0.0
  0
VERTEX
  5
234
100
AcDbEntity
  8
T80SSILL
 62
     7
100
AcDbVertex
100
AcDb2dVertex
 10
122.106931
 20
106.936453
 30
0.0
  0
VERTEX
  5
235
100
AcDbEntity
  8
T80SSILL
 62
     7
100
AcDbVertex
100
AcDb2dVertex
 10
122.904126
 20
107.504549
 30
0.0
  0
VERTEX
  5
236
100
AcDbEntity
  8
T80SSILL
 62
     7
100
AcDbVertex
100
AcDb2dVertex
 10
122.760465
 20
107.748462
 30
0.0
  0
VERTEX
  5
237
100
AcDbEntity
  8
T80SSILL
 62
     7
100
AcDbVertex
100
AcDb2dVertex
 10
122.968894
 20
107.906592
 30
0.0
  0
VERTEX
  5
238
100
AcDbEntity
  8
T80SSILL
 62
     7
100
AcDbVertex
100
AcDb2dVertex
 10
123.17181
 20
107.697475
 30
0.0
  0
VERTEX
  5
239
100
AcDbEntity
  8
T80SSILL
 62
     7
100
AcDbVertex
100
AcDb2dVertex
 10
126.369548
 20
109.978472
 30
0.0
  0
VERTEX
  5
23A
100
AcDbEntity
  8
T80SSILL
 62
     7
100
AcDbVertex
100
AcDb2dVertex
 10
126.25896
 20
110.143492
 30
0.0
  0
VERTEX
  5
23B
100
AcDbEntity
  8
T80SSILL
 62
     7
100
AcDbVertex
100
AcDb2dVertex
 10
126.491504
 20
110.307823
 30
0.0
  0
VERTEX
  5
23C
100
AcDbEntity
  8
T80SSILL
 62
     7
100
AcDbVertex
100
AcDb2dVertex
 10
126.60278
 20
110.156584
 30
0.0
  0
VERTEX
  5
23D
100
AcDbEntity
  8
T80SSILL
 62
     7
100
AcDbVertex
100
AcDb2dVertex
 10
127.447862
 20
110.751896
 30
0.0
  0
VERTEX
  5
23E
100
AcDbEntity
  8
T80SSILL
 62
     7
100
AcDbVertex
100
AcDb2dVertex
 10
127.09164
 20
111.234899
 30
0.0
  0
VERTEX
  5
23F
100
AcDbEntity
  8
T80SSILL
 62
     7
100
AcDbVertex
100
AcDb2dVertex
 10
127.254937
 20
111.346175
 30
0.0
  0
VERTEX
  5
240
100
AcDbEntity
  8
T80SSILL
 62
     7
100
AcDbVertex
100
AcDb2dVertex
 10
127.608059
 20
110.869029
 30
0.0
  0
VERTEX
  5
241
100
AcDbEntity
  8
T80SSILL
 62
     7
100
AcDbVertex
100
AcDb2dVertex
 10
128.758032
 20
111.677249
 30
0.0
  0
VERTEX
  5
242
100
AcDbEntity
  8
T80SSILL
 62
     7
100
AcDbVertex
100
AcDb2dVertex
 10
129.53249
 20
112.021758
 30
0.0
  0
VERTEX
  5
243
100
AcDbEntity
  8
T80SSILL
 62
     7
100
AcDbVertex
100
AcDb2dVertex
 10
129.579687
 20
112.048975
 30
0.0
  0
VERTEX
  5
244
100
AcDbEntity
  8
T80SSILL
 62
     7
100
AcDbVertex
100
AcDb2dVertex
 10
129.611038
 20
112.113398
 30
0.0
  0
VERTEX
  5
245
100
AcDbEntity
  8
T80SSILL
 62
     7
100
AcDbVertex
100
AcDb2dVertex
 10
129.970017
 20
112.314591
 30
0.0
  0
VERTEX
  5
246
100
AcDbEntity
  8
T80SSILL
 62
     7
100
AcDbVertex
100
AcDb2dVertex
 10
130.299712
 20
112.424146
 30
0.0
  0
VERTEX
  5
247
100
AcDbEntity
  8
T80SSILL
 62
     7
100
AcDbVertex
100
AcDb2dVertex
 10
130.382739
 20
112.376948
 30
0.0
  0
VERTEX
  5
248
100
AcDbEntity
  8
T80SSILL
 62
     7
100
AcDbVertex
100
AcDb2dVertex
 10
130.660758
 20
112.502694
 30
0.0
  0
VERTEX
  5
249
100
AcDbEntity
  8
T80SSILL
 62
     7
100
AcDbVertex
100
AcDb2dVertex
 10
130.703478
 20
112.643598
 30
0.0
  0
VERTEX
  5
24A
100
AcDbEntity
  8
T80SSILL
 62
     7
100
AcDbVertex
100
AcDb2dVertex
 10
131.254348
 20
112.852715
 30
0.0
  0
VERTEX
  5
24B
100
AcDbEntity
  8
T80SSILL
 62
     7
100
AcDbVertex
100
AcDb2dVertex
 10
131.339442
 20
112.849615
 30
0.0
  0
VERTEX
  5
24C
100
AcDbEntity
  8
T80SSILL
 62
     7
100
AcDbVertex
100
AcDb2dVertex
 10
131.396286
 20
112.819987
 30
0.0
  0
VERTEX
  5
24D
100
AcDbEntity
  8
T80SSILL
 62
     7
100
AcDbVertex
100
AcDb2dVertex
 10
133.643867
 20
113.792193
 30
0.0
  0
VERTEX
  5
24E
100
AcDbEntity
  8
T80SSILL
 62
     7
100
AcDbVertex
100
AcDb2dVertex
 10
133.705189
 20
113.640953
 30
0.0
  0
VERTEX
  5
24F
100
AcDbEntity
  8
T80SSILL
 62
     7
100
AcDbVertex
100
AcDb2dVertex
 10
131.411789
 20
112.659101
 30
0.0
  0
VERTEX
  5
250
100
AcDbEntity
  8
T80SSILL
 62
     7
100
AcDbVertex
100
AcDb2dVertex
 10
131.322561
 20
112.515441
 30
0.0
  0
VERTEX
  5
251
100
AcDbEntity
  8
T80SSILL
 62
     7
100
AcDbVertex
100
AcDb2dVertex
 10
130.949457
 20
112.311146
 30
0.0
  0
VERTEX
  5
252
100
AcDbEntity
  8
T80SSILL
 62
     7
100
AcDbVertex
100
AcDb2dVertex
 10
130.705545
 20
112.223296
 30
0.0
  0
VERTEX
  5
253
100
AcDbEntity
  8
T80SSILL
 62
     7
100
AcDbVertex
100
AcDb2dVertex
 10
130.629064
 20
112.318726
 30
0.0
  0
VERTEX
  5
254
100
AcDbEntity
  8
T80SSILL
 62
     7
100
AcDbVertex
100
AcDb2dVertex
 10
130.407199
 20
112.225708
 30
0.0
  0
VERTEX
  5
255
100
AcDbEntity
  8
T80SSILL
 62
     7
100
AcDbVertex
100
AcDb2dVertex
 10
130.365858
 20
112.050697
 30
0.0
  0
VERTEX
  5
256
100
AcDbEntity
  8
T80SSILL
 62
     7
100
AcDbVertex
100
AcDb2dVertex
 10
129.776058
 20
111.779224
 30
0.0
  0
VERTEX
  5
257
100
AcDbEntity
  8
T80SSILL
 62
     7
100
AcDbVertex
100
AcDb2dVertex
 10
129.664092
 20
111.889467
 30
0.0
  0
VERTEX
  5
258
100
AcDbEntity
  8
T80SSILL
 62
     7
100
AcDbVertex
100
AcDb2dVertex
 10
129.622062
 20
111.888433
 30
0.0
  0
VERTEX
  5
259
100
AcDbEntity
  8
T80SSILL
 62
     7
100
AcDbVertex
100
AcDb2dVertex
 10
129.105987
 20
111.6552
 30
0.0
  0
VERTEX
  5
25A
100
AcDbEntity
  8
T80SSILL
 62
     7
100
AcDbVertex
100
AcDb2dVertex
 10
129.731961
 20
111.440915
 30
0.0
  0
VERTEX
  5
25B
100
AcDbEntity
  8
T80SSILL
 62
     7
100
AcDbVertex
100
AcDb2dVertex
 10
129.840137
 20
111.52911
 30
0.0
  0
VERTEX
  5
25C
100
AcDbEntity
  8
T80SSILL
 62
     7
100
AcDbVertex
100
AcDb2dVertex
 10
129.885267
 20
111.687584
 30
0.0
  0
VERTEX
  5
25D
100
AcDbEntity
  8
T80SSILL
 62
     7
100
AcDbVertex
100
AcDb2dVertex
 10
130.015837
 20
111.652444
 30
0.0
  0
VERTEX
  5
25E
100
AcDbEntity
  8
T80SSILL
 62
     7
100
AcDbVertex
100
AcDb2dVertex
 10
130.176378
 20
111.647276
 30
0.0
  0
VERTEX
  5
25F
100
AcDbEntity
  8
T80SSILL
 62
     7
100
AcDbVertex
100
AcDb2dVertex
 10
130.295578
 20
111.570795
 30
0.0
  0
VERTEX
  5
260
100
AcDbEntity
  8
T80SSILL
 62
     7
100
AcDbVertex
100
AcDb2dVertex
 10
130.288344
 20
111.080903
 30
0.0
  0
VERTEX
  5
261
100
AcDbEntity
  8
T80SSILL
 62
     7
100
AcDbVertex
100
AcDb2dVertex
 10
130.124702
 20
110.936898
 30
0.0
  0
VERTEX
  5
262
100
AcDbEntity
  8
T80SSILL
 62
     7
100
AcDbVertex
100
AcDb2dVertex
 10
129.749875
 20
111.074013
 30
0.0
  0
VERTEX
  5
263
100
AcDbEntity
  8
T80SSILL
 62
     7
100
AcDbVertex
100
AcDb2dVertex
 10
129.597602
 20
111.091238
 30
0.0
  0
VERTEX
  5
264
100
AcDbEntity
  8
T80SSILL
 62
     7
100
AcDbVertex
100
AcDb2dVertex
 10
129.219331
 20
111.32137
 30
0.0
  0
VERTEX
  5
265
100
AcDbEntity
  8
T80SSILL
 62
     7
100
AcDbVertex
100
AcDb2dVertex
 10
128.961982
 20
111.370635
 30
0.0
  0
VERTEX
  5
266
100
AcDbEntity
  8
T80SSILL
 62
     7
100
AcDbVertex
100
AcDb2dVertex
 10
128.905138
 20
111.360989
 30
0.0
  0
VERTEX
  5
267
100
AcDbEntity
  8
T80SSILL
 62
     7
100
AcDbVertex
100
AcDb2dVertex
 10
128.349099
 20
110.974794
 30
0.0
  0
VERTEX
  5
268
100
AcDbEntity
  8
T80SSILL
 62
     7
100
AcDbVertex
100
AcDb2dVertex
 10
128.478635
 20
110.783247
 30
0.0
  0
VERTEX
  5
269
100
AcDbEntity
  8
T80SSILL
 62
     7
100
AcDbVertex
100
AcDb2dVertex
 10
128.339453
 20
110.690573
 30
0.0
  0
VERTEX
  5
26A
100
AcDbEntity
  8
T80SSILL
 62
     7
100
AcDbVertex
100
AcDb2dVertex
 10
128.210262
 20
110.871441
 30
0.0
  0
VERTEX
  5
26B
100
AcDbEntity
  8
T80SSILL
 62
     7
100
AcDbVertex
100
AcDb2dVertex
 10
126.784682
 20
109.859616
 30
0.0
  0
VERTEX
  5
26C
100
AcDbEntity
  8
T80SSILL
 62
     7
100
AcDbVertex
100
AcDb2dVertex
 10
126.712679
 20
109.649121
 30
0.0
  0
VERTEX
  5
26D
100
AcDbEntity
  8
T80SSILL
 62
     7
100
AcDbVertex
100
AcDb2dVertex
 10
126.473589
 20
109.376959
 30
0.0
  0
VERTEX
  5
26E
100
AcDbEntity
  8
T80SSILL
 62
     7
100
AcDbVertex
100
AcDb2dVertex
 10
126.351289
 20
109.101695
 30
0.0
  0
VERTEX
  5
26F
100
AcDbEntity
  8
T80SSILL
 62
     7
100
AcDbVertex
100
AcDb2dVertex
 10
126.38505
 20
108.080225
 30
0.0
  0
VERTEX
  5
270
100
AcDbEntity
  8
T80SSILL
 62
     7
100
AcDbVertex
100
AcDb2dVertex
 10
126.493226
 20
107.875241
 30
0.0
  0
VERTEX
  5
271
100
AcDbEntity
  8
T80SSILL
 62
     7
100
AcDbVertex
100
AcDb2dVertex
 10
126.581421
 20
107.552436
 30
0.0
  0
VERTEX
  5
272
100
AcDbEntity
  8
T80SSILL
 62
     7
100
AcDbVertex
100
AcDb2dVertex
 10
126.565229
 20
106.66429
 30
0.0
  0
VERTEX
  5
273
100
AcDbEntity
  8
T80SSILL
 62
     7
100
AcDbVertex
100
AcDb2dVertex
 10
126.368169
 20
106.34114
 30
0.0
  0
VERTEX
  5
274
100
AcDbEntity
  8
T80SSILL
 62
     7
100
AcDbVertex
100
AcDb2dVertex
 10
126.401242
 20
103.758008
 30
0.0
  0
VERTEX
  5
275
100
AcDbEntity
  8
T80SSILL
 62
     7
100
AcDbVertex
100
AcDb2dVertex
 10
126.48048
 20
103.675326
 30
0.0
  0
VERTEX
  5
276
100
AcDbEntity
  8
T80SSILL
 62
     7
100
AcDbVertex
100
AcDb2dVertex
 10
126.640332
 20
103.625372
 30
0.0
  0
VERTEX
  5
277
100
AcDbEntity
  8
T80SSILL
 62
     7
100
AcDbVertex
100
AcDb2dVertex
 10
126.604159
 20
103.43348
 30
0.0
  0
VERTEX
  5
278
100
AcDbEntity
  8
T80SSILL
 62
     7
100
AcDbVertex
100
AcDb2dVertex
 10
126.418123
 20
103.317725
 30
0.0
  0
VERTEX
  5
279
100
AcDbEntity
  8
T80SSILL
 62
     7
100
AcDbVertex
100
AcDb2dVertex
 10
126.44155
 20
102.363433
 30
0.0
  0
VERTEX
  5
27A
100
AcDbEntity
  8
T80SSILL
 62
     7
100
AcDbVertex
100
AcDb2dVertex
 10
126.494949
 20
102.405808
 30
0.0
  0
VERTEX
  5
27B
100
AcDbEntity
  8
T80SSILL
 62
     7
100
AcDbVertex
100
AcDb2dVertex
 10
126.583832
 20
102.291431
 30
0.0
  0
VERTEX
  5
27C
100
AcDbEntity
  8
T80SSILL
 62
     7
100
AcDbVertex
100
AcDb2dVertex
 10
126.439138
 20
102.168441
 30
0.0
  0
VERTEX
  5
27D
100
AcDbEntity
  8
T80SSILL
 62
     7
100
AcDbVertex
100
AcDb2dVertex
 10
126.439138
 20
101.699563
 30
0.0
  0
VERTEX
  5
27E
100
AcDbEntity
  8
T80SSILL
 62
     7
100
AcDbVertex
100
AcDb2dVertex
 10
126.83877
 20
101.685438
 30
0.0
  0
VERTEX
  5
27F
100
AcDbEntity
  8
T80SSILL
 62
     7
100
AcDbVertex
100
AcDb2dVertex
 10
126.833602
 20
101.469086
 30
0.0
  0
VERTEX
  5
280
100
AcDbEntity
  8
T80SSILL
 62
     7
100
AcDbVertex
100
AcDb2dVertex
 10
126.449818
 20
101.458407
 30
0.0
  0
VERTEX
  5
281
100
AcDbEntity
  8
T80SSILL
 62
     7
100
AcDbVertex
100
AcDb2dVertex
 10
126.476345
 20
99.572561
 30
0.0
  0
VERTEX
  5
282
100
AcDbEntity
  8
T80SSILL
 62
     7
100
AcDbVertex
100
AcDb2dVertex
 10
126.556616
 20
99.623893
 30
0.0
  0
VERTEX
  5
283
100
AcDbEntity
  8
T80SSILL
 62
     7
100
AcDbVertex
100
AcDb2dVertex
 10
126.646878
 20
99.519162
 30
0.0
  0
VERTEX
  5
284
100
AcDbEntity
  8
T80SSILL
 62
     7
100
AcDbVertex
100
AcDb2dVertex
 10
126.48737
 20
99.395483
 30
0.0
  0
VERTEX
  5
285
100
AcDbEntity
  8
T80SSILL
 62
     7
100
AcDbVertex
100
AcDb2dVertex
 10
126.483925
 20
99.275594
 30
0.0
  0
VERTEX
  5
286
100
AcDbEntity
  8
T80SSILL
 62
     7
100
AcDbVertex
100
AcDb2dVertex
 10
126.492537
 20
97.291564
 30
0.0
  0
VERTEX
  5
287
100
AcDbEntity
  8
T80SSILL
 62
     7
100
AcDbVertex
100
AcDb2dVertex
 10
126.56454
 20
97.341173
 30
0.0
  0
VERTEX
  5
288
100
AcDbEntity
  8
T80SSILL
 62
     7
100
AcDbVertex
100
AcDb2dVertex
 10
126.643088
 20
97.228518
 30
0.0
  0
VERTEX
  5
289
100
AcDbEntity
  8
T80SSILL
 62
     7
100
AcDbVertex
100
AcDb2dVertex
 10
126.490126
 20
97.119653
 30
0.0
  0
VERTEX
  5
28A
100
AcDbEntity
  8
T80SSILL
 62
     7
100
AcDbVertex
100
AcDb2dVertex
 10
126.522854
 20
94.706364
 30
0.0
  0
VERTEX
  5
28B
100
AcDbEntity
  8
T80SSILL
 62
     7
100
AcDbVertex
100
AcDb2dVertex
 10
126.623796
 20
94.766653
 30
0.0
  0
VERTEX
  5
28C
100
AcDbEntity
  8
T80SSILL
 62
     7
100
AcDbVertex
100
AcDb2dVertex
 10
126.707856
 20
94.64263
 30
0.0
  0
VERTEX
  5
28D
100
AcDbEntity
  8
T80SSILL
 62
     7
100
AcDbVertex
100
AcDb2dVertex
 10
126.528711
 20
94.512405
 30
0.0
  0
VERTEX
  5
28E
100
AcDbEntity
  8
T80SSILL
 62
     7
100
AcDbVertex
100
AcDb2dVertex
 10
126.560061
 20
92.213493
 30
0.0
  0
VERTEX
  5
28F
100
AcDbEntity
  8
T80SSILL
 62
     7
100
AcDbVertex
100
AcDb2dVertex
 10
126.563851
 20
92.155615
 30
0.0
  0
VERTEX
  5
290
100
AcDbEntity
  8
T80SSILL
 62
     7
100
AcDbVertex
100
AcDb2dVertex
 10
126.677539
 20
92.228651
 30
0.0
  0
VERTEX
  5
291
100
AcDbEntity
  8
T80SSILL
 62
     7
100
AcDbVertex
100
AcDb2dVertex
 10
126.755054
 20
92.113585
 30
0.0
  0
VERTEX
  5
292
100
AcDbEntity
  8
T80SSILL
 62
     7
100
AcDbVertex
100
AcDb2dVertex
 10
126.565918
 20
91.974748
 30
0.0
  0
VERTEX
  5
293
100
AcDbEntity
  8
T80SSILL
 62
     7
100
AcDbVertex
100
AcDb2dVertex
 10
126.591412
 20
89.678592
 30
0.0
  0
VERTEX
  5
294
100
AcDbEntity
  8
T80SSILL
 62
     7
100
AcDbVertex
100
AcDb2dVertex
 10
126.66307
 20
89.732335
 30
0.0
  0
VERTEX
  5
295
100
AcDbEntity
  8
T80SSILL
 62
     7
100
AcDbVertex
100
AcDb2dVertex
 10
126.727493
 20
89.639662
 30
0.0
  0
VERTEX
  5
296
100
AcDbEntity
  8
T80SSILL
 62
     7
100
AcDbVertex
100
AcDb2dVertex
 10
126.738862
 20
89.579717
 30
0.0
  0
VERTEX
  5
297
100
AcDbEntity
  8
T80SSILL
 62
     7
100
AcDbVertex
100
AcDb2dVertex
 10
126.601747
 20
89.484977
 30
0.0
  0
VERTEX
  5
298
100
AcDbEntity
  8
T80SSILL
 62
     7
100
AcDbVertex
100
AcDb2dVertex
 10
126.627241
 20
87.184687
 30
0.0
  0
VERTEX
  5
299
100
AcDbEntity
  8
T80SSILL
 62
     7
100
AcDbVertex
100
AcDb2dVertex
 10
126.637576
 20
87.134389
 30
0.0
  0
VERTEX
  5
29A
100
AcDbEntity
  8
T80SSILL
 62
     7
100
AcDbVertex
100
AcDb2dVertex
 10
126.730594
 20
87.190888
 30
0.0
  0
VERTEX
  5
29B
100
AcDbEntity
  8
T80SSILL
 62
     7
100
AcDbVertex
100
AcDb2dVertex
 10
126.812242
 20
87.067554
 30
0.0
  0
VERTEX
  5
29C
100
AcDbEntity
  8
T80SSILL
 62
     7
100
AcDbVertex
100
AcDb2dVertex
 10
126.627241
 20
86.944908
 30
0.0
  0
VERTEX
  5
29D
100
AcDbEntity
  8
T80SSILL
 62
     7
100
AcDbVertex
100
AcDb2dVertex
 10
126.640332
 20
86.328925
 30
0.0
  0
VERTEX
  5
29E
100
AcDbEntity
  8
T80SSILL
 62
     7
100
AcDbVertex
100
AcDb2dVertex
 10
126.811553
 20
85.950998
 30
0.0
  0
VERTEX
  5
29F
100
AcDbEntity
  8
T80SSILL
 62
     7
100
AcDbVertex
100
AcDb2dVertex
 10
126.954869
 20
85.505892
 30
0.0
  0
VERTEX
  5
2A0
100
AcDbEntity
  8
T80SSILL
 62
     7
100
AcDbVertex
100
AcDb2dVertex
 10
126.953147
 20
85.484532
 30
0.0
  0
VERTEX
  5
2A1
100
AcDbEntity
  8
T80SSILL
 62
     7
100
AcDbVertex
100
AcDb2dVertex
 10
126.770901
 20
85.47213
 30
0.0
  0
VERTEX
  5
2A2
100
AcDbEntity
  8
T80SSILL
 62
     7
100
AcDbVertex
100
AcDb2dVertex
 10
126.696487
 20
85.564114
 30
0.0
  0
VERTEX
  5
2A3
100
AcDbEntity
  8
T80SSILL
 62
     7
100
AcDbVertex
100
AcDb2dVertex
 10
126.663759
 20
85.572382
 30
0.0
  0
VERTEX
  5
2A4
100
AcDbEntity
  8
T80SSILL
 62
     7
100
AcDbVertex
100
AcDb2dVertex
 10
126.652045
 20
85.550334
 30
0.0
  0
VERTEX
  5
2A5
100
AcDbEntity
  8
T80SSILL
 62
     7
100
AcDbVertex
100
AcDb2dVertex
 10
126.665137
 20
84.558835
 30
0.0
  0
VERTEX
  5
2A6
100
AcDbEntity
  8
T80SSILL
 62
     7
100
AcDbVertex
100
AcDb2dVertex
 10
126.674094
 20
84.536787
 30
0.0
  0
VERTEX
  5
2A7
100
AcDbEntity
  8
T80SSILL
 62
     7
100
AcDbVertex
100
AcDb2dVertex
 10
126.753676
 20
84.58674
 30
0.0
  0
VERTEX
  5
2A8
100
AcDbEntity
  8
T80SSILL
 62
     7
100
AcDbVertex
100
AcDb2dVertex
 10
126.830501
 20
84.45686
 30
0.0
  0
VERTEX
  5
2A9
100
AcDbEntity
  8
T80SSILL
 62
     7
100
AcDbVertex
100
AcDb2dVertex
 10
126.668582
 20
84.345584
 30
0.0
  0
VERTEX
  5
2AA
100
AcDbEntity
  8
T80SSILL
 62
     7
100
AcDbVertex
100
AcDb2dVertex
 10
126.677884
 20
83.877051
 30
0.0
  0
VERTEX
  5
2AB
100
AcDbEntity
  8
T80SSILL
 62
     7
100
AcDbVertex
100
AcDb2dVertex
 10
126.819822
 20
83.566303
 30
0.0
  0
VERTEX
  5
2AC
100
AcDbEntity
  8
T80SSILL
 62
     7
100
AcDbVertex
100
AcDb2dVertex
 10
126.918696
 20
83.433322
 30
0.0
  0
VERTEX
  5
2AD
100
AcDbEntity
  8
T80SSILL
 62
     7
100
AcDbVertex
100
AcDb2dVertex
 10
127.166054
 20
83.244531
 30
0.0
  0
VERTEX
  5
2AE
100
AcDbEntity
  8
T80SSILL
 62
     7
100
AcDbVertex
100
AcDb2dVertex
 10
127.285598
 20
83.205602
 30
0.0
  0
VERTEX
  5
2AF
100
AcDbEntity
  8
T80SSILL
 62
     7
100
AcDbVertex
100
AcDb2dVertex
 10
127.526066
 20
83.146691
 30
0.0
  0
VERTEX
  5
2B0
100
AcDbEntity
  8
T80SSILL
 62
     7
100
AcDbVertex
100
AcDb2dVertex
 10
127.740007
 20
83.152547
 30
0.0
  0
VERTEX
  5
2B1
100
AcDbEntity
  8
T80SSILL
 62
     7
100
AcDbVertex
100
AcDb2dVertex
 10
127.74104
 20
83.179763
 30
0.0
  0
VERTEX
  5
2B2
100
AcDbEntity
  8
T80SSILL
 62
     7
100
AcDbVertex
100
AcDb2dVertex
 10
127.773768
 20
83.195955
 30
0.0
  0
VERTEX
  5
2B3
100
AcDbEntity
  8
T80SSILL
 62
     7
100
AcDbVertex
100
AcDb2dVertex
 10
127.922252
 20
83.169428
 30
0.0
  0
VERTEX
  5
2B4
100
AcDbEntity
  8
T80SSILL
 62
     7
100
AcDbVertex
100
AcDb2dVertex
 10
127.928109
 20
83.141523
 30
0.0
  0
VERTEX
  5
2B5
100
AcDbEntity
  8
T80SSILL
 62
     7
100
AcDbVertex
100
AcDb2dVertex
 10
129.506996
 20
83.175629
 30
0.0
  0
VERTEX
  5
2B6
100
AcDbEntity
  8
T80SSILL
 62
     7
100
AcDbVertex
100
AcDb2dVertex
 10
129.513197
 20
83.018877
 30
0.0
  0
VERTEX
  5
2B7
100
AcDbEntity
  8
T80SSILL
 62
     7
100
AcDbVertex
100
AcDb2dVertex
 10
127.989087
 20
82.993728
 30
0.0
  0
VERTEX
  5
2B8
100
AcDbEntity
  8
T80SSILL
 62
     7
100
AcDbVertex
100
AcDb2dVertex
 10
127.955325
 20
82.962378
 30
0.0
  0
VERTEX
  5
2B9
100
AcDbEntity
  8
T80SSILL
 62
     7
100
AcDbVertex
100
AcDb2dVertex
 10
127.945334
 20
82.859025
 30
0.0
  0
VERTEX
  5
2BA
100
AcDbEntity
  8
T80SSILL
 62
     7
100
AcDbVertex
100
AcDb2dVertex
 10
127.978407
 20
82.656453
 30
0.0
  0
VERTEX
  5
2BB
100
AcDbEntity
  8
T80SSILL
 62
     7
100
AcDbVertex
100
AcDb2dVertex
 10
127.823722
 20
82.655075
 30
0.0
  0
VERTEX
  5
2BC
100
AcDbEntity
  8
T80SSILL
 62
     7
100
AcDbVertex
100
AcDb2dVertex
 10
127.754476
 20
82.670234
 30
0.0
  0
VERTEX
  5
2BD
100
AcDbEntity
  8
T80SSILL
 62
     7
100
AcDbVertex
100
AcDb2dVertex
 10
127.758266
 20
82.856269
 30
0.0
  0
VERTEX
  5
2BE
100
AcDbEntity
  8
T80SSILL
 62
     7
100
AcDbVertex
100
AcDb2dVertex
 10
127.728982
 20
82.989594
 30
0.0
  0
VERTEX
  5
2BF
100
AcDbEntity
  8
T80SSILL
 62
     7
100
AcDbVertex
100
AcDb2dVertex
 10
127.361391
 20
83.011643
 30
0.0
  0
VERTEX
  5
2C0
100
AcDbEntity
  8
T80SSILL
 62
     7
100
AcDbVertex
100
AcDb2dVertex
 10
127.191892
 20
83.072965
 30
0.0
  0
VERTEX
  5
2C1
100
AcDbEntity
  8
T80SSILL
 62
     7
100
AcDbVertex
100
AcDb2dVertex
 10
126.879766
 20
83.268302
 30
0.0
  0
VERTEX
  5
2C2
100
AcDbEntity
  8
T80SSILL
 62
     7
100
AcDbVertex
100
AcDb2dVertex
 10
126.677539
 20
83.493612
 30
0.0
  0
VERTEX
  5
2C3
100
AcDbEntity
  8
T80SSILL
 62
     7
100
AcDbVertex
100
AcDb2dVertex
 10
126.696487
 20
81.739369
 30
0.0
  0
VERTEX
  5
2C4
100
AcDbEntity
  8
T80SSILL
 62
     7
100
AcDbVertex
100
AcDb2dVertex
 10
126.719569
 20
81.469963
 30
0.0
  0
VERTEX
  5
2C5
100
AcDbEntity
  8
T80SSILL
 62
     7
100
AcDbVertex
100
AcDb2dVertex
 10
126.880111
 20
81.052072
 30
0.0
  0
VERTEX
  5
2C6
100
AcDbEntity
  8
T80SSILL
 62
     7
100
AcDbVertex
100
AcDb2dVertex
 10
126.925586
 20
79.46664
 30
0.0
  0
VERTEX
  5
2C7
100
AcDbEntity
  8
T80SSILL
 62
     7
100
AcDbVertex
100
AcDb2dVertex
 10
127.03135
 20
79.162782
 30
0.0
  0
VERTEX
  5
2C8
100
AcDbEntity
  8
T80SSILL
 62
     7
100
AcDbVertex
100
AcDb2dVertex
 10
127.654224
 20
78.205735
 30
0.0
  0
VERTEX
  5
2C9
100
AcDbEntity
  8
T80SSILL
 62
     7
100
AcDbVertex
100
AcDb2dVertex
 10
127.643888
 20
78.131321
 30
0.0
  0
VERTEX
  5
2CA
100
AcDbEntity
  8
T80SSILL
 62
     7
100
AcDbVertex
100
AcDb2dVertex
 10
127.704522
 20
78.005575
 30
0.0
  0
VERTEX
  5
2CB
100
AcDbEntity
  8
T80SSILL
 62
     7
100
AcDbVertex
100
AcDb2dVertex
 10
127.724504
 20
77.866048
 30
0.0
  0
VERTEX
  5
2CC
100
AcDbEntity
  8
T80SSILL
 62
     7
100
AcDbVertex
100
AcDb2dVertex
 10
127.876432
 20
77.580794
 30
0.0
  0
VERTEX
  5
2CD
100
AcDbEntity
  8
T80SSILL
 62
     7
100
AcDbVertex
100
AcDb2dVertex
 10
127.730016
 20
77.475374
 30
0.0
  0
VERTEX
  5
2CE
100
AcDbEntity
  8
T80SSILL
 62
     7
100
AcDbVertex
100
AcDb2dVertex
 10
127.24598
 20
78.160948
 30
0.0
  0
VERTEX
  5
2CF
100
AcDbEntity
  8
T80SSILL
 62
     7
100
AcDbVertex
100
AcDb2dVertex
 10
126.994143
 20
78.119952
 30
0.0
  0
VERTEX
  5
2D0
100
AcDbEntity
  8
T80SSILL
 62
     7
100
AcDbVertex
100
AcDb2dVertex
 10
126.861507
 20
78.316322
 30
0.0
  0
VERTEX
  5
2D1
100
AcDbEntity
  8
T80SSILL
 62
     7
100
AcDbVertex
100
AcDb2dVertex
 10
127.009646
 20
78.459638
 30
0.0
  0
VERTEX
  5
2D2
100
AcDbEntity
  8
T80SSILL
 62
     7
100
AcDbVertex
100
AcDb2dVertex
 10
126.755743
 20
78.823096
 30
0.0
  0
VERTEX
  5
2D3
100
AcDbEntity
  8
T80SSILL
 62
     7
100
AcDbVertex
100
AcDb2dVertex
 10
126.76849
 20
78.267402
 30
0.0
  0
SEQEND
  5
2D4
100
AcDbEntity
  8
T80SSILL
 62
     7
  0
POLYLINE
  5
30
100
AcDbEntity
  8
T80SSILL
 62
     7
100
AcDb2dPolyline
 66
     1
 10
0.0
 20
0.0
 30
0.0
 70
     1
  0
VERTEX
  5
31
100
AcDbEntity
  8
T80SSILL
 62
     7
100
AcDbVertex
100
AcDb2dVertex
 10
132.890424
 20
60.34636
 30
0.0
  0
VERTEX
  5
32
100
AcDbEntity
  8
T80SSILL
 62
     7
100
AcDbVertex
100
AcDb2dVertex
 10
133.208751
 20
59.928125
 30
0.0
  0
VERTEX
  5
33
100
AcDbEntity
  8
T80SSILL
 62
     7
100
AcDbVertex
100
AcDb2dVertex
 10
133.46231
 20
59.781364
 30
0.0
  0
VERTEX
  5
34
100
AcDbEntity
  8
T80SSILL
 62
     7
100
AcDbVertex
100
AcDb2dVertex
 10
133.225288
 20
60.302607
 30
0.0
  0
SEQEND
  5
35
100
AcDbEntity
  8
T80SSILL
 62
     7
  0
MTEXT
  5
2F
100
AcDbEntity
  8
T80SSILL
 62
     7
100
AcDbMText
 10
145.315506
 20
79.36714
 30
0.0
 40
0.026247
 41
0.0
 71
     1
 72
     2
  1
\fMyriad Roman|b0|i0;\H0.0262;\C3;\U+0038\U+0030\U+0030\U+0030
  7
STD
210
0.0
220
0.0
230
1.0
 73
     1
 44
1.0
  0
MTEXT
  5
2E
100
AcDbEntity
  8
T80SSILL
 62
     7
100
AcDbMText
 10
131.994646
 20
60.913787
 30
0.0
 40
0.026247
 41
0.0
 71
     1
 72
     2
  1
\fMyriad Roman|b0|i0;\H0.0262;\C7;\U+0044
  7
STD
210
0.0
220
0.0
230
1.0
 11
-0.865545
 21
0.500831
 31
0.0
 73
     1
 44
1.0
  0
MTEXT
  5
2D
100
AcDbEntity
  8
T80SSILL
 62
     7
100
AcDbMText
 10
133.678264
 20
59.85442
 30
0.0
 40
0.026247
 41
0.0
 71
     1
 72
     2
  1
\fMyriad Roman|b0|i0;\H0.0262;\C7;\U+0055
  7
STD
210
0.0
220
0.0
230
1.0
 11
-0.865545
 21
0.500831
 31
0.0
 73
     1
 44
1.0
  0
MTEXT
  5
2C
100
AcDbEntity
  8
T80SSILL
 62
     7
100
AcDbMText
 10
130.369594
 20
58.283801
 30
0.0
 40
0.026247
 41
0.0
 71
     1
 72
     2
  1
\fMyriad Roman|b0|i0;\H0.0262;\C3;\U+0055
  7
STD
210
0.0
220
0.0
230
1.0
 11
-0.865545
 21
0.500831
 31
0.0
 73
     1
 44
1.0
  0
LINE
  5
2A
100
AcDbEntity
  8
1000SCALE
 62
     7
100
AcDbLine
 10
96.478521
 20
27.530103
 30
0.0
 11
117.223853
 21
27.530103
 31
0.0
  0
ENDSEC
  0
SECTION
  2
OBJECTS
  0
DICTIONARY
  5
19
100
AcDbDictionary
280
     0
281
     1
  3
ACAD_GROUP
350
1A
  3
ACAD_MLINESTYLE
350
1B
  3
ACAD_LAYOUT
350
1E
  3
ACAD_PLOTSETTINGS
350
22
  3
ACAD_PLOTSTYLENAME
350
1F
  3
ACAD_WIPEOUT_VARS
350
23
  0
DICTIONARY
  5
1A
102
{ACAD_REACTORS
330
19
102
}
100
AcDbDictionary
280
     0
281
     1
  0
DICTIONARY
  5
1B
102
{ACAD_REACTORS
330
19
102
}
100
AcDbDictionary
280
     0
281
     1
  3
Standard
350
1C
  0
MLINESTYLE
  5
1C
102
{ACAD_REACTORS
330
1B
102
}
100
AcDbMlineStyle
  2
Standard
 70
     0
  3

 62
     0
 51
90.0
 52
90.0
 71
     2
 49
0.5
 62
   256
  6
ByLayer
 49
-0.5
 62
   256
  6
ByLayer
  0
ACDBDICTIONARYWDFLT
  5
1F
102
{ACAD_REACTORS
330
19
102
}
100
AcDbDictionary
281
     1
  3
Normal
350
1D
100
AcDbDictionaryWithDefault
340
1D
  0
ACDBPLACEHOLDER
  5
1D
102
{ACAD_REACTORS
330
1F
102
}
  0
LAYOUT
  5
20
102
{ACAD_REACTORS
330
1E
102
}
100
AcDbPlotSettings
  1

  2

  4

  6

 40
0.0
 41
0.0
 42
0.0
 43
0.0
 44
0.0
 45
0.0
 46
0.0
 47
0.0
 48
0.0
 49
0.0
140
0.0
141
0.0
142
1.0
143
1.0
 70
  1024
 72
     0
 73
     0
 74
     0
  7

 75
     0
147
1.0
148
0.0
149
0.0
100
AcDbLayout
  1
Model
 70
     0
 71
     0
 10
0.0
 20
0.0
 11
0.0
 21
0.0
 12
0.0
 22
0.0
 32
0.0
 14
0.0
 24
0.0
 34
0.0
 15
0.0
 25
0.0
 35
0.0
146
0.0
 13
0.0
 23
0.0
 33
0.0
 16
0.0
 26
0.0
 36
0.0
 17
0.0
 27
0.0
 37
0.0
 76
     0
330
A
331
0
345
0
346
0
  0
LAYOUT
  5
21
102
{ACAD_REACTORS
330
1E
102
}
100
AcDbPlotSettings
  1

  2

  4

  6

 40
0.0
 41
0.0
 42
0.0
 43
0.0
 44
0.0
 45
0.0
 46
0.0
 47
0.0
 48
0.0
 49
0.0
140
0.0
141
0.0
142
1.0
143
1.0
 70
     0
 72
     0
 73
     0
 74
     0
  7

 75
     0
147
1.0
148
0.0
149
0.0
100
AcDbLayout
  1
Layout1
 70
     0
 71
     0
 10
0.0
 20
0.0
 11
0.0
 21
0.0
 12
0.0
 22
0.0
 32
0.0
 14
0.0
 24
0.0
 34
0.0
 15
0.0
 25
0.0
 35
0.0
146
0.0
 13
0.0
 23
0.0
 33
0.0
 16
0.0
 26
0.0
 36
0.0
 17
0.0
 27
0.0
 37
0.0
 76
     0
330
B
331
0
345
0
346
0
  0
DICTIONARY
  5
1E
102
{ACAD_REACTORS
330
19
102
}
100
AcDbDictionary
280
     0
281
     1
  3
Layout1
350
21
  3
Model
350
20
  0
DICTIONARY
  5
22
102
{ACAD_REACTORS
330
19
102
}
100
AcDbDictionary
280
     0
281
     1
  0
WIPEOUTVARIABLES
  5
23
100
AcDbWipeoutVariables
 70
     1
  0
ENDSEC
  0
EOF
